Oops, an error
Loading. Please wait.

Nicotine bass

10,977 views 33 this week
no commentswrite comment
1 2 3 4 5
x 16
add to favorites
×
Save as Personal and add changes to this tab that will be seen only by you. Learn more ›
×
You can save this tab as Personal to edit and correct it or add notes. All changes will be seen only by you. Learn more »
launch autoscroll
font size
0
reset
guitar tuner
edit
Autoscroll
slow
fast
+/-
esc
set tempo
stop
Author
Difficulty
Nicotine - Too Weird to Live, Too Rare to Die!
Panic! at the Disco

Bass Tab
Check out the cover https://www.youtube.com/watch?v=vtXMEKJYkbw

My first tab so may not be 100% use the video for timing

[Intro]
G|------------------------------|
D|------------------------------|
A|--------------15----18--------|
E|--13----16--------------12\1--|

G|-----------------------------------------------------------------|
D|-----------------------------------------------------------------|
A|--------------------------------3--3--3--3--3--6--6--6--6--------|
E|--1--1--1--1--1--4--4--4--4--4-----------------------------12\1--|

G|----------------------------------------------------------------|
D|----------------------------------------------------------------|
A|--------------------------------3--3--3--3--3--6--6--6--6--6\0--|
E|--1--1--1--1--1--4--4--4--4--4----------------------------------|

[Verse 1] 0:48
G|--------------------------------------------------------------------|
D|--------------------------------------------------------------------|
A|--------------------------------------3--3--3--3--3--3--3--3--3--3--|
E|--12\1--1--1--1--1--1--1--1--1--1--1--------------------------------|

[Pre Chorus]
G|----------------------------------------------5---5------5-----8---8----8---|  |
D|--------3---3-------3-----6---6-------6-------------------------------------|  |
A|------------------------------------------3---3----3--3---3--6---6----6---8-|x2|
E|-12\1-1---1----1--1--1--4---4----4--4--4------------------------------------|  |

[Chorus]
G|-----------------------------5---5-------8---8--------|
D|---3---3-------6---6---6\0----------------------------|
A|---------------------------3---3---3-3-6---6---6------|
E|-1---1---1-1-4---4---4---------------------------12\0-|

G|-----------------------------5---5---------8---8--------|
D|---3---3-------6---6------------------------------------|
A|---------------------------3---3---3-3---6---6---6-6\0--|
E|-1---1---1-1-4---4---4-4--------------------------------|

[Verse 2] 1:32
G|-15\0-----------------------------5---5---------8---8----------|
D|-13\0----3---3-------6---6-------------------------------------|
A|---------------------------------3---3---3-3---6---6---6-------|
E|--------1---1--1-1--4---4---4-4--------------------------12\0--|

G|--------------------------------------------------------------------|
D|--------------------------------------------------------------------|
A|--------------------------------------3--3--3--3--3--3--3--3--3--3--|
E|-----1--1--1--1--1--1--1--1--1--1--1--------------------------------|

[Pre-Chorus]
G|----------------------------------------------5---5------5-----8---8----8---|  |
D|--------3---3-------3-----6---6-------6-------------------------------------|  |
A|-------------------------------------------3---3----3--3---3-6---6----6---8-|x2|
E|-12\1-1---1----1--1---1-4---4----4--4---4-----------------------------------|  |

[Chorus]
G|-----------------------------5---5-------8---8--------|
D|---3---3-------6---6---6\0----------------------------|
A|---------------------------3---3---3-3-6---6---6------|
E|-1---1---1-1-4---4---4---------------------------12\0-|

G|------------------------------5---5---------8---8--------|
D|---3---3-------6---6---6\0-------------------------------|
A|----------------------------3---3---3-3---6---6---6-6----|
E|-1---1---1-1-4---4---4-----------------------------------|

[Bridge]
G|--------------------------------------------------------------------------------------|
D|------------------6~~~-------------8------------------------------------------8-8-----|
A|-4---------4-6-------4-------4-6-----6-4-4-4-4-4-------------6-6-6-6-6--6-6-6-----6\4-|
E|-----4-1---------------4-1-----------------------4\1-1-1-1-1--------------------------|

G|-----------------------------------------------|
D|-----------------------------------------------|
A|-4-4-4-4-4-------------6-6-6-6-6--6\0----------|
E|-----------4\1-1-1-1-1------------------1/12\1-|

[Chorus]
G-------------------------------------------5---5------5-----8---8----8---------|
D|----3---3-------3-----6---6-------6-------------------------------------------|
A|---------------------------------------3---3----3--3---3-6---6----6---8\0-----|
E|--1---1----1--1---1-4---4----4--4---4-----------------------------------------|


************************************

| \  Slide down
| x  Dead note
| ~  Vibrato
| /  Slide up 

************************************

Thanks
     -TommyB

            
            
Suggest correction
Creating personal tab
Creating personal tab
You can edit any tab online and save it as your Personal.

You can edit, replace or remove any tab part or add personal notes – all changes will be seen only by you.

Personal tabs can be accessed anytime from any device, even offline.
Learn more »
comments
print report bad tab
guest
You may want to rate the tab now too:
select rating
Wanna post a correction for this tab? Suggest correction