Oops, an error
Loading. Please wait.

Nicotine Tab

version 1
version 1
20,332 views 219 this week
4 commentsread comments
1 2 3 4 5
excellent!
x 31
add to favorites
launch autoscroll
font size
0
reset
how to read this tab
guitar tuner
Tab Pro tools
  • play this tab
  • loop segment
  • change instrument
  • show fretboard
  • metronome
Autoscroll
slow
fast
+/-
esc
set tempo
stop
Contributor
Song: Nicotine
Band: Panic! At The Disco
Album: Too Weird To Live, Too Rare To Die!
Tabber: Toast

Intro/Chorus (listen for rhythm)
|----------------------------------------------------------|
|----------------------------------------------------------|
|-----8-10------8----------------------------------8-------|
|---10------10----10----------------8----------------8-----|
|-8------------------11-11~-10---------10-------10------10-|
|------------------------------8-11-------11-11------------|

There isn't really much other guitar in this song. Anyways. I had fun playing 
this, I hope you do too!
comments
print report bad tab
4 comments total. Showing first comments.
+5 reply
dalek_recon wrote on November 11 2013, 07:59 pm

I think the first 5 notes sound more accurate as:

|----------------
|----------------
|----------10----
|-------10---10--
|-8--11----------
|----------------

Great tab though! Thanks!

0 reply
trin.leppert wrote on November 23 2013, 06:28 pm

right, thanks! you're right! I'd heard how it wasn't completely right on just that note, but I couldn't really figure it out. thank you!

0 reply
UmbraMachina wrote on December 12 2013, 09:34 pm

I think that the last 4 notes should have another note in it, like this:

|-------------|
|-------------|
|------8------|
|----8---8----|
|-10-------10-|
|-------------|

After listening to the song a few times, it's clear that there's that additional note to keep it in time with the song. Other than that, amazing tab! This is one of my favorite songs off of the album.

I want to post or [tab]
guest
You may want to rate the tab now too:
select rating
Please do not post tabs as comments. Select "correction" instead!