Oops, an error
Loading. Please wait.

Nine In The Afternoon Bass Tab

version 1
version 1

Whole song

Interactive

30,031 views 42 this week
5 commentsread comments
1 2 3 4 5
excellent!
x 30
add to favorites
launch autoscroll
font size
0
reset
guitar tuner
Tab Pro tools
  • play this tab
  • loop segment
  • change instrument
  • show fretboard
  • metronome
×
Best way to learn
"Nine In The Afternoon"
Autoscroll
slow
fast
+/-
esc
set tempo
stop
Contributor
-------------------------------------------------------------------------------
			    Nine In The Afternoon - Panic At The Disco
-------------------------------------------------------------------------------

Tabbed By: Valerie L
e-mail: iloled@yahoo.com
Tuning: standard

Intro
G|-----------|
D|-----------|
A|-1---------|
E|-----------|

Verse bass doesn't come in until: "and you know..."
G|--------------|-----------------------------------|---------------|
D|--------------|---------------------------------3-|---------------|
A|--------5-5-6-|--1-1-1-1-1-1-1-10-1-1-1-1-1-3-5---|---------5-5-6-|
E|3-3-3-3-------|-----------------------------------|-3-3-3-3-------|

pre-chorus "back to the street where we began.."
G|----------------------------------------------|
D|----------------------------------------------|
A|----3-5---------3-5-----35-------3-5----5-5-6-|
E|3-3------22-2-2-----1-1----22-2------3--------|

verse "into a place.."
G|----------------|---------------|---------------------------------|-------------|
D|--------------3-|---------------|--------------------------------3|-------------|
A|-1--01--1-3-5---|---------5-5-6-|-1-1-1-1-1-1-1-10-1-1-1-1-1-3-5--|--------5-5-6|
E|----------------|-3-3-3-3-------|---------------------------------|3-3-3-3------|

chorus
G|----------------------------------------------------------------|
D|----------------------------------------------------------------|
A|1-1-1-1-1-1-0-0-----------------5-5-5-5-5-5-5-5-6-6-6-6-6-6-6-6-|
E|----------------3-3-3-3-3-3-3-3---------------------------------|

G|--------------------------------------------------|
D|--------------------------------------------------|
A|1-1-1-1-1-1-0-0-----------------5-5-5-5-5-5-5-5-6-|
E|----------------3-3-3-3-3-3-3-3-------------------|

verse "back to the street, down to our feet."
G|-----------------|---------------|
D|---------------3-|---------------|
A|1--1--1--1-3-5---|--------5-5-6--|
E|-----------------|3-3-3-3--------|

G|----------------------------------|-------------|
D||-------------------------------3-|-------------|
A|-1-1-1-1-1-1-1-10-1-1-1-1-1-3-5---|--------5-5-6|
E|----------------------------------|3-3-3-3------|

pre-chorus "back to the street where we began.."
G|-------------------------------------|   |----------|
D|-------------------------------------|   |----------|
A|----3-5---------3-5-----35-------3-5-|   |----5~-6~-|
E|3-3------22-2-2-----1-1----22-2------|x2 |3~--------|

chorus "it's nine in the afternoon..."
G|---------------------------------------------------------------|----|
D|---------------------------------------------------------------|----|
A|1-1-1-1-1-1-0-0-----------------5-5-5-5-5-5-5-5-6-6-6-6-6-6-6-6|----|
E|----------------3-3-3-3-3-3-3-3--------------------------------|-6--|
comments
print report bad tab
5 comments total. Showing first comments.
0 reply
roddy1977 wrote on May 7 2008, 04:17 pm

This tab is good, though the song is in drop D

+1 reply
lostlilkid wrote on May 9 2008, 08:01 pm

I think this tab is great.
I'm playing your tabs to try out for my talent show.
I already memorized the tabs, It's really easy.

0 reply
Skerlnik wrote on January 7 2009, 08:37 pm

Yes, this song is definitely drop D like the other guys says, so when tuned to D, the 5's and 6's on the A string end up being 0's and 1's on the low D string. Good tab otherwise!

I want to post or [tab]
guest
You may want to rate the tab now too:
select rating
Please do not post tabs as comments. Select "correction" instead!