Oops, an error
Loading. Please wait.

Nine In The Afternoon Bass Tab

version 3
version 3

Whole song

Interactive

11,620 views 1 this week
no commentswrite comment
1 2 3 4 5
please rate
add to favorites
launch autoscroll
font size
0
reset
guitar tuner
Tab Pro tools
  • play this tab
  • loop segment
  • change instrument
  • show fretboard
  • metronome
×
Best way to learn
"Nine In The Afternoon"
Autoscroll
slow
fast
+/-
esc
set tempo
stop
Contributor
Tuning
D G C F A D
-------------------------------------------------------------------------------
			     Nine In The Afternoon - Panic! At The Disco
-------------------------------------------------------------------------------

Tabbed By : MusicMan24
e-mail: a7t1r1@hotmail.com

I tabbed this song because all the other versions are in the
wrong tuning, this song and most of the other songs on Pretty. Odd.
are in D Standard tuning. 


Tuning: D Standard  (DGCF)


Intro x1

F|------------|
C|------------|
G|3~--------3-|
D|------------|


Then pause until 0:12


Verse 1 x1  

F|---------------------------------------------------------|
C|-------------------------------------------5-------------|
G|------7-7-8--3-3-3-3-3-3-3-3--3-3-3-3-3-5-7--------7-7-8-|
D|5-5-5-----------------------2----------------5-5-5-------|


Interlude x1

F|--------------------------------------|
C|--------------------------------------|
G|---5-7----5-7----5-7----5-7-----7-7-8-|
D|5-5----4-4----3-3----4-4---5~---------|


Verse 2

F|-----------------------------------------------------------------------------|
C|----------------5----------------------------------------------5-------------|
G|3------3---3-5-7--------7-7-8--3-3-3-3--3-3-3-3--3-3-3-3--3-5-7--------7-7-8-|
D|------2-----------5-5-5---------------2--------2--------2--------5-5-5-------|


Chorus x1

F|--------------------------------------------------------------|
C|--------------------------------------------------------------|
G|3-3-3-3-3-3-2-2---------------7-7-7-7-7-7-7-7-8-8-8-8-8-8-8-8-|
D|---------------5-5-5-5-5-5-5-5--------------------------------|

F|----------------------------------------------|
C|----------------------------------------------|
G|3-3-3-3-3-3-2-2---------------7-7-7-7-7-7-7-8-|
D|---------------5-5-5-5-5-5-5-5----------------|


Verse 3

F|--------------------------------------------------------------------------|
C|----------------5--------------------------------------------5------------|
G|3---3---3--3-5-7--------7-7-8--3-3-3-3-3-3-3-3--3-3-3-3-3-5-7-------7-7-8-|
D|------------------5-5-5-----------------------2---------------5-5-5-------|

Pre-Chorus x2


Then...

F|---------------|
C|---------------|
G|--------7~--8~-|
D|5~-------------|


Outro Chorus

F|--------------------------------------------------------------|
C|--------------------------------------------------------------|
G|3-3-3-3-3-3-2-2---------------7-7-7-7-7-7-7-7-8-8-8-8-8-8-8-8-|
D|---------------5-5-5-5-5-5-5-5--------------------------------|

F|--------------------------------------------------------------------|
C|--------------------------------------------------------------------|
G|3-3-3-3-3-3-2-2---------------7-7-7-7-7-7-7-7-8-8-8-8-8-8-8-8--3-3~-|
D|---------------5-5-5-5-5-5-5-5--------------------------------------|

PEACE


| /  slide up
| \  slide down
| h  hammer-on
| p  pull-off
| ~  vibrato
| +  harmonic
| x  Mute note
===============================================================================
comments
We did not receive enough feedback on this tab! Please rate:
print report bad tab
1 2 3 4 5
I want to post or [tab]
guest
You may want to rate the tab now too:
select rating
Please do not post tabs as comments. Select "correction" instead!