Oops, an error
Loading. Please wait.
We have Chord Pro version of Northern Downpour.
It's the closest thing you can get to the original song and it has interactive parts. Check out the tab »
×
23,684 views 57 this week
4 commentsread comments
1 2 3 4 5
x 16
add to favorites
launch autoscroll
font size
0
reset
guitar tuner
Autoscroll
slow
fast
+/-
esc
set tempo
stop
Author
Tuning: standard

(no bass until) (0:45) 
"Tripping eyes and flooded lungs..."
G|------------------------------|
D|------------------------------|
A|01~--5~--------------5~---1~--|
E|----------1~----1~------------|

[Pre-Chorus] 
"hey moon, please forget to fall down..." 
G|-------------------5-2~--32-------------|
D|----------------23----------5-3~------2-|
A|00000000-3333-5-------------------3-5---|
E|----------------------------------------| 

[Chorus]
"Sugarcane in the easy morning..."
G|--------------------|
D|--------------------|
A|----1~----5~--------|
E|1~-------------3~---|

[Verse]
"the ink is running towards the page."
G|-----------------------------|     |-----------|----------|
D|---------3~------------3-----|     |-----------|--------3-|
A|-----3h5-----------3h5---5-3-|     |1-1--5-53--|----3h5---|
E|-1-1----------1-1------------| (x2)|-----------|1-1-------|

"you clicked your heels and wished for me.."
G|-------------------|
D|---------------2---|
A|----5-5--1-3-5-----|
E|1-1----------------|

"through playful lips.."                "i know the world's.."
G|-----------------------------|     |-----------|----------|
D|---------3~------------3-----|     |-----------|--------3-|
A|-----3h5-----------3h5---5-3-|     |1-1--5-53--|----3h5---|
E|-1-1----------1-1------------| (x2)|-----------|1-1-------|

G|-----------------------2-|
D|-------------------235---|
A|----5-5--1-1-33-55-------|
E|1-1----------------------|

[Pre-Chorus] 
"hey moon, please forget to fall down..." 
G|-------------------5-2~--32-------------|
D|----------------23----------5-3~------2-|
A|00000000-3333-5-------------------3-5---|
E|----------------------------------------| 

[Chorus]
G|--------------------------------------|
D|--------------------------------------|
A|--------11111111-55555555-------------|
E|11111111------------------3--3--3-3~--|

keep repeating this chorus until the end of the song
G|-----------------------------------|
D|-----------------------------------|
A|---------11111111-55555555---------|
E|11111111-------------------33333333|


************************************

| ~  Vibrato
| h  Hammer-on

************************************
Suggest correction
comments
print report bad tab
4 comments total. Showing first comments.
+1 reply
thatonebassist 10 Jul 09, 2008 12:58 PM

this is a really good tab! great job! XD

+1 reply
Dreamer11 20 Nov 04, 2008 02:21 PM

mann, this song makes me really happy :D
if you were like, sitting next to me...
id totally give you like, a high-five! That's how cool your tab is.

+1 reply
!Heymoon! 20 Mar 26, 2009 08:15 AM

so awsome!great job

guest
You may want to rate the tab now too:
select rating
Wanna post a correction for this tab? Suggest correction