Oops, an error
Loading. Please wait.

Northern Downpour Tab

version 1
version 1

Whole song

Interactive

60,489 views 33 this week
6 commentsread comments
1 2 3 4 5
x 8
add to favorites
launch autoscroll
font size
0
reset
how to read this tab
guitar tuner
Autoscroll
slow
fast
+/-
esc
set tempo
stop
Help us to improve Ultimate-Guitar.com Take our survey!
×
Author
Gtr. Tuning:Whole-Step Down(Alternative)

[Intro]
d|-3333--8-8-8-8---|
A|-3333--8-8-8-8---|
F|-4444--7-7-7-7---|
C|-5555-10101010---|
G|-5555-10101010---|
D|-3333--8-8-8-8---|

[Verse 1]
If all our life
d|-3333--8-8-8-8--3333--8-8-8-8----8-8-8-8-7777-3333---3333-7777--8-8-8-8---|
A|-3333--8-8-8-8--3333--8-8-8-8----8-8-8-8-8888-3333---3333-8888--8-8-8-8---|
F|-4444--7-7-7-7--4444--7-7-7-7----7-7-7-7-9999-4444---4444-9999--7-7-7-7---| x2
C|-5555-10101010--5555-10101010---10101010-9999-5555---5555-9999-10101010---|
G|-5555-10101010--5555-10101010---10101010-7777-5555---5555-7777-10101010---|
D|-3333--8-8-8-8--3333--8-8-8-8----8-8-8-8------3333---3333-------8-8-8-8---|

[Chorus]
Hey moon
d|-2222-2222-000---2222-3333---3333-0000-0000--0-0-0-0~---|
A|-3333-3333-000---3333-3333---3333-1111-0000--1-1-1-1~---|
F|-4444-2222-000---4444-0000---0000-0000-0000--2-2-2-2~---|
C|-4444-0000-222---4444-0000---0000-2222-2222--2-2-2-2~---|
G|-2222------222---2222-2222---2222-3333-2222--0-0-0-0~---|
D|-----------000--------3333---3333------0000-------------|

[Verse 2]
The link is running...

If all our life
d|-3333--8-8-8-8--3333--8-8-8-8----8-8-8-8-7777-3333---3333-7777--8-8-8-8---|
A|-3333--8-8-8-8--3333--8-8-8-8----8-8-8-8-8888-3333---3333-8888--8-8-8-8---|
F|-4444--7-7-7-7--4444--7-7-7-7----7-7-7-7-9999-4444---4444-9999--7-7-7-7---| x2
C|-5555-10101010--5555-10101010---10101010-9999-5555---5555-9999-10101010---|
G|-5555-10101010--5555-10101010---10101010-7777-5555---5555-7777-10101010---|
D|-3333--8-8-8-8--3333--8-8-8-8----8-8-8-8------3333---3333-------8-8-8-8---|

(Gtr.2 Enters)
d|-------------|
A|-------------|
F|-------------|
C|--------5~---|
G|----5h7------|
D|-33----------|
 
[Chorus]
Hey moon
d|-2222-2222-000---2222-3333---3333-0000-0000--0-0-0-0~---|
A|-3333-3333-000---3333-3333---3333-1111-0000--1-1-1-1~---|
F|-4444-2222-000---4444-0000---0000-0000-0000--2-2-2-2~---|
C|-4444-0000-222---4444-0000---0000-2222-2222--2-2-2-2~---|
G|-2222------222---2222-2222---2222-3333-2222--0-0-0-0~---|
D|-----------000--------3333---3333------0000-------------|

[Outro Chorus]
Sugar cane
d|-3333-0000-0000-0000---|
A|-3333-1111-0000-1111---|
F|-0000-0000-0000-2222---| 6x
C|-0000-2222-2222-2222---|
G|-2222-3333-2222-0000---|
D|-3333------0000--------|

d|-33333333333333333333333333333333333333333---|
A|-33333333333333333333333333333333333333333---|
F|-00000000000000000000000000000000000000000---|
C|-00000000000000000000000000000000000000000---|
G|-22222222222222222222222222222222222222222---|
D|-33333333333333333333333333333333333333333---|


************************************

| ~  Vibrato
| h  Hammer-on

************************************
Suggest correction
comments
print report bad tab
6 comments total. Showing first comments.
0 reply
bear1918 10 Nov 16, 2008 09:11 PM

jeez this is soo hard i wish they could make like an easier version haha

0 reply
macflii 50 Mar 16, 2009 08:49 PM

this 8-8-7-10-10-8 is hard. :\

0 reply
Cracka94 10 Jul 18, 2009 08:01 PM

lol yehh im pretty sure my hand isnt big enough...

guest
You may want to rate the tab now too:
select rating
Wanna post a correction for this tab? Suggest correction