Oops, an error
Loading. Please wait.

Northern Downpour Bass Tab

version 2
version 2

Whole song

Interactive

1,471 views 6 this week
no commentswrite comment
1 2 3 4 5
please rate
add to favorites
launch autoscroll
font size
0
reset
guitar tuner
Tab Pro tools
  • play this tab
  • loop segment
  • change instrument
  • show fretboard
  • metronome
Autoscroll
slow
fast
+/-
esc
set tempo
stop
Contributor
Tuning
D G C F A D
-------------------------------------------------------------------------------
			     Northern Downpour - Panic! At The Disco
-------------------------------------------------------------------------------

Tabbed By : MusicMan24
e-mail: a7t1r1@hotmail.com

THIS SONG IS IN D STANDARD NOT E STANDARD!!!
And their are a few fills in the outro chorus, but I haven't
figured them out yet.


Tuning: D Standard  (DGCF)


Verse 1 x1  (Bass doen't come in until 0:45)

F|---------------------------------------|
C|---------------------------------------|
G|2-3~----7~--------------------7~----3~-|
D|---------------3~-------3~-------------|


Pre-Chorus x1

F|------------------74~---54------------|
C|-----------------4--------75~------4~-|
G|2-2-2-22--5-5-5-7--------------5-7----|
D|--------------------------------------|


Chorus x1

F|---------------------|
C|---------------------|
G|-----3~-----7~-------|
D|3~----------------5~-|


Verse

F|----------------------|
C|------5~--------5-----|
G|---5h7-------5h7--7-5-| x2
D|3-3-------3-3---------|

F|-------------------------------------|
C|-----------------5-------------------|
G|3--3-7--7-5---5h7------7-7-3-3-55-77-|
D|-----------3-3------3-3--------------|

F|----------------------|
C|------5~--------5-----|
G|---5h7-------5h7--7-5-|
D|3-3-------3-3---------|

F|--------------------------------------4-|
C|-----------------5-----------------457--|
G|3--3-7--7-5---5h7-----7-7-3-3-55-77-----|
D|-----------3-3-----3-3------------------|

Pre-Chorus x1


Outro Chorus

F|--------------------------------|
C|--------------------------------|
G|--------33333333-77777777-------|
D|33333333-----------------5-5-55-|

Then just repeat this until about 3:50

F|----------------------------------|
C|----------------------------------|
G|--------33333333-77777777---------|
D|33333333-----------------55555555-|

This song may be a bit difficult for someone who's just starting out.


PEACE


| /  slide up
| \  slide down
| h  hammer-on
| p  pull-off
| ~  vibrato
| +  harmonic
| x  Mute note
===============================================================================
comments
We did not receive enough feedback on this tab! Please rate:
print report bad tab
1 2 3 4 5
I want to post or [tab]
guest
You may want to rate the tab now too:
select rating
Please do not post tabs as comments. Select "correction" instead!