Oops, an error
Loading. Please wait.

Pas De Cheval chords

version 1
version 1

Whole song

Interactive

40,724 views 78 this week
9 commentsread comments
1 2 3 4 5
x 31
add to favorites
×
Save as Personal and add changes to this tab that will be seen only by you. Learn more ›
×
You can save this tab as Personal to edit and correct it or add notes. All changes will be seen only by you. Learn more »
launch autoscroll
font size
0
reset
transpose
0
reset
simplify chords
display chords
guitar tuner
edit
Autoscroll
slow
fast
+/-
esc
set tempo
stop
Author
Strumming
There is no strumming pattern for this song yet. and get +5 IQ
Artist: Panic At The Disco
Song: Pas De Cheval
Tabbed by: Manthony (03.22.08)
TUNING: Standard

 [Chord Diagrams]
   E  B  Esus4/A  Dsus2  Bb  F#m
e|-0--2----0--------0-----1---2----|
B|-0--4----0--------3-----3---2----|
G|-1--4----2--------2-----3---2----|
D|-2--4----2--------0-----3---4----|
A|-2--2----0--------x-----1---4----|
E|-0--x----x--------x-----x---2----|

 [Intro]
   E E E E E E E
e|--------------0----|
B|-----0-----0--0----|
G|-0h1---0h1----1----|
D|--------------2----|
A|--------------2----|
E|--------------0----|

[Verse 1]
E                  B
Oh, little did she know
                Esus4/A
Couldn't let me go
          E
Already a part of her

E              B
So, often do I need
            Esus4/A
People in between
                      E
That just can't get a hold of it

[Pre-Chorus]
                      B
So we'll just sing it for them
B Bb Esus4/A 
Ahhh
                         E
Yeah, we'll just sing it for them

(Just can't get a hold of it)
                      B
So we'll just sing it for them
B Bb Esus4/A 
Ahhh
                         
Yeah, we'll just sing it

[Chorus]
         E                     Dsus2        Esus4/A
It's the greatest thing that's yet to have happened
Esus4/A F#m     E
Imagine knowing me
         E                    Dsus2 Esus4/A
It's the greatest thing you'd ever imagine
           B          Esus4/A      E
But you'll never know until you're there
           B                       E
No, you'll never know until you're there

[Verse 2]
E                          B
Slow, leave walking to the world
                 Esus4/A
Give your feet a chance
                   E
They'll do all the thinking
E                      B
Toast, high until they find
              Esus4/A
Less pathetic wine
                 E
Until they get a better blend

                        B
And we'll just drink it for them
B Bb Esus4/A 
Ahhh
                         E
Yeah we'll just drink it for them

(Until they get a better plan)

[Pre-Chorus]
                       B
So we'll just drink it for them
B Bb Esus4/A 
Yeah we'll just drink it

[Chorus]
         E                     Dsus2        Esus4/A
It's the greatest thing that's yet to have happened
Esus4/A F#m     E
Imagine knowing me
         E                    Dsus2 Esus4/A
It's the greatest thing you'd ever imagine
           B          Esus4/A      E
But you'll never know until you're there
           B                       E
No, you'll never know until you're there

 [Solo]
e|------------9-7--9h11b12r11-9--------------------------------------------|
B|--------7-9-------------------12-10-8b10r=8-7----------------------------|
G|-/9-9-9---------------------------------------9~-7--7h9p7p0--------------|
D|-----------------------------------------------------------9--7p5--------|
A|------------------------------------------------------------------7------|
E|--------------------------------------------------------------------7----|

e|------------9-7--9h11b12r11-9----------------------------------|
B|--------7-9-------------------12-10-8b10r=8-7------------------|
G|------/9---------------------------------------9-7--6--7-9-----|
D|-------------------------------------------------------~----7--|
A|---------------------------------------------------------------|
E|-0-0-----------------------------------------------------------|

************************************

| x  Dead note
| h  Hammer-on
| r  Release
| b  Bend
| p  Pull-off
| /  Slide up
| ~  Vibrato

************************************
Suggest correction
Creating personal tab
Creating personal tab
You can edit any tab online and save it as your Personal.

You can edit, replace or remove any tab part or add personal notes – all changes will be seen only by you.

Personal tabs can be accessed anytime from any device, even offline.
Learn more »
comments
print report bad tab
9 comments total. Showing first comments.
0 reply
Johnmayergal 141 Mar 31, 2008 01:49 PM

Dude/dudette this tab rox, totally kicks ass!!!

keep rockin on

0 reply
Johnmayergal 141 Mar 31, 2008 01:50 PM

ohh sorry dude didnt see your name!

0 reply
Hic-Jacet 10 Apr 02, 2008 02:56 PM

awesome

guest
You may want to rate the tab now too:
select rating
Wanna post a correction for this tab? Suggest correction