Oops, an error
Loading. Please wait.

Sarah Smiles tab

version 1
version 1

Whole song

Interactive

9,046 views 36 this week
2 commentsread comments
1 2 3 4 5
x 11
add to favorites
×
Save as Personal and add changes to this tab that will be seen only by you. Learn more ›
×
You can save this tab as Personal to edit and correct it or add notes. All changes will be seen only by you. Learn more »
launch autoscroll
font size
0
reset
how to read this tab
guitar tuner
edit
Autoscroll
slow
fast
+/-
esc
set tempo
stop
Author
Difficulty
========================================================================================
                          Sarah Smiles - Panic! At The Disco
========================================================================================


CELLO TO GUITAR INTRO 0:00
e|-------------------------------------------------------------|
B|-------------------------------------------------------------|
G|-------------------------------------------------------------|
D|--0-----0----023-----3----345-----5----567-----6777555333222-|
A|-----0-----0------3-----3------5-----5------7----------------|
E|-------------------------------------------------------------|


FIRST RIFF 0:11 (WITH CELLO RIFF CONTINUED)
e|-----5~----5~---------5~----5~---------3~----3~---------5~----6~-5~---|
B|---6-----6---6------6-----6---6------3-----3---3------5-----5---------|
G|--7-----7-----7----5-----5-----5----3-----3-----3----6-----6----------|
D|----------------------------------------------------------------------|
A|----------------------------------------------------------------------|
E|----------------------------------------------------------------------|
     Dm               F                  Gm                 A





VERSE 0:22 (↓ ↓ ↓↑↓↑) x2 for every chord)
          
Dm                                   F
I was fine, just a guy, living on my own.
                        Gm
Waiting for the sky to fall.
                               A
Then you called and changed it all, Doll.

Dm                                   F
Velvet lips and the eyes to pull me in,
                         Gm
We both know you already win
                    A
Mmmm, Your Original sin.

e|--1--|--1--|--3--|-----|----------------10-------|---------------------------|
B|--3--|--1--|--3--|--2--|-----11-10p8-------------|---11p10--10p8-------------|
G|--2--|--2--|--3--|--2--|------------10-----------|----------------10~--------|
D|--0--|--3--|--0--|--2--|-------------------------|---------------------------|
A|-----|--3--|--x--|--0--|-------------------------|---------------------------|
E|-----|-----|--3--|-----|Lick-when-he-says-"Doll"-|-Lick-after-"Original Sin"-|
   Dm     F    Gm     A

"Velvet lips and the eyes to...""
(this is a second guitar doing staccato's for each chord: listen closely)
e|-1--1--1-1--1--1--1--1-1--1--3--3--3-3--3--5--5--5-5--5-|
B|-3--3--3-3--3--1--1--1-1--1--3--3--3-3--3--5--5--5-5--5-|
G|--------------------------------------------------------|
D|--------------------------------------------------------|
A|--------------------------------------------------------|
E|--------------------------------------------------------|
     Dm            F             Gm             A




PRE-CHORUS 0:44 (↓ ↓ ↓↑↓↑) x2 for every chord)

Bb                            C
You fooled me once with your eyes now, Honey
Bb                           A
You fooled me one with your lies, and i say

e|-----|-----|-----|-----|--10Tr----12Tr----10Tr----9Tr------|
B|--3--|--1--|--3--|--2--|-----------------------------------|
G|--3--|--0--|--3--|--2--|-----------------------------------|
D|--3--|--2--|--3--|--2--|-----------------------------------|
A|--1--|--3--|--1--|--0--|-----------------------------------|
E|-----|-----|-----|-----|--Tremelo-picking.-(Note-per-chord)|
   Bb     C    Bb     A




CHORUS 0:55 (no lead, note the change between A and Am chords)

F                          Fsus2
Sarah Smiles like Sarah doesn't care
Dm                         C     Bb
She lives in a world, so unaware..
(Bb)          Am          Gm       C (bend)
Does she know; that my destiny lies with her?




POST CHORUS 1:13 (no lead)

F      Am    Bb    Bb              
Sarah, Sarah Sarah Sarah, 
    Dm     Am        Bb           Bb
Oh Sarah, Sarah, Oh Sarah are you saving me.


e|--1--|--1--|-----|-----|-----|
B|--1--|--1--|--1--|--3--|--1--|
G|--2--|--0--|--2--|--3--|--0--|
D|--3--|--3--|--2--|--3--|--2--|
A|--3--|--3--|--0--|--1--|--3--|
E|-----|-----|-----|-----|-----|
    F   Fsus2   Am   Bb     C




PRE-VERSE 1:23
Behind all the trumpets, you can hear:
e|------------------------0-1-x-x-1-x-x-1-x-1-x-1-x-3-x--------------------------------------------|
B|-3-x-x-x-3-x-x-3-x-3-x-3------------------------------1-x-3-x----------------------start of verse|
G|--------------------------------------------------------------0x-320--2-x-0-x-----------------↓--|
D|-----------------------------------------------------------------------------3-x-2-x-3-3-2-2-(0)-|
A|-------------------------------------------------------------------------------------------------|
E|-------------------------------------------------------------------------------------------------|




1:35
   REPEAT VERSE CHORDS (with different lyrics but same structure) and no licks!
instead; the lead does this:
e|----5~--------8~---------10~---------12~-----|
B|------6~--------10~---------11~---------14~--|
G|--7~-------10~--------12~---------14~--------|
D|---------------------------------------------| x2
A|---------------------------------------------|
E|---------------------------------------------|



  REPEAT PRE-CHORUS 1:58 (can use A7 for last A)
Just hell big strumming



CHORUS 2 2:08(same chords but, bar & staccato)
        ↓ ↓ ↓ ↓ ↓ ↓ ↓ ↓ ↓ ↓ ↓ ↓                ↓↑↓↑↓↑↓↑
e|-------------------------------------------|-----|-----|--3--|-----|
B|-10---------8---------6---------5----------|--3--|--1--|--3--|--1--|
G|-10---------10--------7---------5----------|--3--|--2--|--3--|--0--|
D|-10--(x12)--10--(x4)--7--(x12)--5--(x4)----|--3--|--2--|--5--|--2--|
A|-8----------8---------5---------3----------|--1--|--0--|--5--|--3--|
E|-------------------------------------------|-----|-----|--3--|-----|
   F         Fsus2     Dm         C            Bb    Am    Gm     C (bend)



  REPEAT POST-CHORUS 2:26




BRIDGE 2:37 (No lead)

Dm                      Bb
And it's killing me inside
Dm                      Bb         Am
  Consuming all my time, you've left me blind
Gm                    Dm                        Gm
And when I think I'm right you shook away my pride
(Gm)               A             (single F chord going into chorus)
You cast it all aside, but I say:





OUTRO CHORUS 3:00
        ↓ ↓ ↓ ↓ ↓ ↓         ↓↑↓↑↓↑↓↑       (gradual bend)
e|-----------------------|-----|-----|--3--|------|
B|--6---------5----------|--3--|--1--|--3--|--5b--|
G|--7---------5----------|--3--|--2--|--3--|--5b--|
D|--7--(x12)--5--(x4)----|--3--|--2--|--5--|--5b--|
A|--5---------3----------|--1--|--0--|--5--|--3b--|
E|-----------------------|-----|-----|--3--|------|
    Dm        C            Bb     Am   Gm     C




REPEAT POST-CHORUS 3:17
to finish on Dm
Suggest correction
Creating personal tab
Creating personal tab
You can edit any tab online and save it as your Personal.

You can edit, replace or remove any tab part or add personal notes – all changes will be seen only by you.

Personal tabs can be accessed anytime from any device, even offline.
Learn more »
comments
print report bad tab
2 comments total.
0 reply
calvindc 12 Jun 08, 2016 03:56 PM

This is so great

guest
You may want to rate the tab now too:
select rating
Wanna post a correction for this tab? Suggest correction