Oops, an error
Loading. Please wait.

Sarah Smiles Bass Tab

version 2
version 2

Whole song

Interactive

1,585 views 1 this week
no commentswrite comment
1 2 3 4 5
please rate
add to favorites
launch autoscroll
font size
0
reset
guitar tuner
Autoscroll
slow
fast
+/-
esc
set tempo
stop
Help us to improve Ultimate-Guitar.com Take our survey!
×
Author
Difficulty
intermediate
-------------------------------------------------------------------------------
                             SARAH SMILES - Panic! At The Disco
-------------------------------------------------------------------------------
Tabbed by: A.L. Skelton
Tuning: Standard

I was pretty disappointed to find out that there are no tabs of this song, so I did my 
best to figure them out myself.
There are probably a few mistakes, but this is how I play it.


Intro/Main Riff
G|----------------------------------------------------|
D|----------23~--3~--345~--5~--567~---777-555---------|
A|-5~--5~--5---3---3-----5---5------7---------888-777-| x4
E|---5~--5--------------------------------------------|


Pre-Chorus
G|--------------------------------------------------------------------|
D|-88-8-8--88-8-8-XX-X-X--XX-X-X-98-88-8-8--88-8-8-77-7-7-77-55-------|
A|-----8-8-----8------X-X-----X---------8-8-----8------7--------88-77-| (X=10)
E|--------------------------------------------------------------------|


Chorus
G|--------------------------------------------------------5555----------------------------|
D|----------------------------------------------------------------------------------------|
A|-88-888-88-888-88-888-77-777-55-5555-55-5555-55-5555-33---------------------------33-44-|
E|-------------------------------------------------------------6-6-66-5-5-55-3-3-33-------|


G|----------------------------------------|
D|----------------------------------------|
A|-55-5-------------3-55-5----------------|
E|-----55-566-66-6-6------55-566-6/15\-6~-|

Bridge
G|-----------------------------------------------------|
D|-----------------33---345\0--55-0-567\0--77-55-------|
A|-5\0--550-578\0-----3--------------------------88-77-|
E|-----------------------------------------------------|

G|--------------------------------------------------------|
D|--------------23-3--3-33--345-5--5-567-7--7-77-55-------|
A|-5-5--5~-550-5-----3-----3------5--------7--------88-77-|
E|-----5--------------------------------------------------|

Verse + Pre-Chorus 2
G|------------------------------------------------------------------------------|
D|-----------------------------------4555555555555555-6777777777777777----------|
A|-5555555555555555-7888888888888888-----------------------------------00000000-|
E|------------------------------------------------------------------------------|

("You fooled me once...")
G|---------------------------------------------------------------------------|
D|-8888888888888888-9XXXXXXXXXXXXXXX-988888888888888888-77777777-77-55-------|
A|---------------------------------------------------------------------88-77-|
E|---------------------------------------------------------------------------|

Chorus
G|------------------------------------------------------------5555-|
D|-----------------------------------------------------------------|
A|-8-8-8-8-8-8-8-8-8-8-8-8-7-7-7-7-5-5-5-5-5-5-5-5-5-5-5-5-3-3-----|
E|-----------------------------------------------------------------|

("Does she know...")
G|------------------------------------------------------------------------------------|
D|----------------------------------------------------88-77-55-33-------------8888888-|
A|---------------------------3333-4444-55-5-----------------------55-5----------------|
E|-66666666-55555555-3333333---------------55-566-6-6-----------------55-566----------|

Bridge
G|------------------------------------------------------------------------|
D|---------------------------------------------------------8888------7777-|
A|-5555555555555555/1111111111111111\5555555555555555---------------------|
E|----------------------------------------------------6666------5555------|

G|----------------------------------------------------------------------|
D|-------------------------------------------------------------77777777-|
A|------------------5555555555555555------------------------------------|
E|-3333333333333333------------------3333333333333333-55555555----------|

Last Chorus
G|----------------------------------5555--------------------------------------|
D|----------------------------------------------------------------------------|
A|1/15\-5-5-5-5-5-5-5-5-5-5-5-5-3-3---------------------------------3333-4444-|
E|---------------------------------------66666666-55555555-33333333-----------|

G|------------------------------------------------|
D|----------------88-77-55-33------------88-8~----|
A|-55-5-----------------------55-5-------------5~-|
E|-----55-566-6-6-----------------55-566----------|

| /  slide up
| \  slide down
| h  hammer-on
| p  pull-off
| ~  vibrato
| +  harmonic
| x  Mute note
| X  Tenth fret
===============================================================================
Suggest correction
Give kudos to tab author, rate the tab!
1 2 3 4 5
comments
print report bad tab
guest
You may want to rate the tab now too:
select rating
Please do not post tabs as comments. Select "correction" instead!