Oops, an error
Loading. Please wait.

She Had The World intro tab

version 1
version 1

Intro

Whole song

Interactive

22,596 views 21 this week
9 commentsread comments
1 2 3 4 5
x 20
add to favorites
×
Save as Personal and add changes to this tab that will be seen only by you. Learn more ›
×
You can save this tab as Personal to edit and correct it or add notes. All changes will be seen only by you. Learn more »
launch autoscroll
font size
0
reset
how to read this tab
guitar tuner
edit
Autoscroll
slow
fast
+/-
esc
set tempo
stop
Author
Difficulty
The greatest opening to a song i have heard in ages. :)

Harpsichord theme
E|-10------------7--------------------------|
B|----10-9-10-12--10-9-7-7---9---10---------|
G|-------------------------7---9---9--------|
D|-----------------------------------7------|
A|------------------------------------------|
E|------------------------------------------|
Guitar/ strings theme
E|------------------------------------------|
B|-----------------------10--------10-12-10-|
G|--------------------------9----9----------|
D|----------------------------11------------|
A|------------------------------------------|
E|------------------------------------------|
Bass theme
G|------------------------------------------|
D|---------------7---4----------------------|
A|-5----7---------------5---7---------------|
E|------------------------------5-----------|

            
            
Suggest correction
Creating personal tab
Creating personal tab
You can edit any tab online and save it as your Personal.

You can edit, replace or remove any tab part or add personal notes – all changes will be seen only by you.

Personal tabs can be accessed anytime from any device, even offline.
Learn more »
comments
print report bad tab
9 comments total. Showing first comments.
0 reply
Mcr14 7,513 Sep 08, 2008 04:46 AM

79 view and no comments or ratings. Come on ppl i need your feedback :)

+3 reply
geffro42 91 Sep 22, 2008 05:09 AM

i think it sounds more like this :)
Harpsichord theme
E|-10------------9---------------------------|
B|----10-9-10-12--10-9-7-7-----9------10-----|
G|-------------------------7-9---9-11----9---|
D|-----------------------------------------7-|
A|-------------------------------------------|
E|-------------------------------------------|

0 reply
Mcr14 7,513 Sep 22, 2008 08:10 AM

yer thats sounds pretty cool, thanks for commenting :)

guest
You may want to rate the tab now too:
select rating
Wanna post a correction for this tab? Suggest correction