Oops, an error
Loading. Please wait.

Shes A Handsome Woman Bass Tab

version 3
version 3

Whole song

Interactive

682 views 1 this week
no commentswrite comment
1 2 3 4 5
please rate
add to favorites
launch autoscroll
font size
0
reset
guitar tuner
Tab Pro tools
  • play this tab
  • loop segment
  • change instrument
  • show fretboard
  • metronome
Autoscroll
slow
fast
+/-
esc
set tempo
stop
Contributor
Shes a handsome woman
Pretty Odd
Panic at the disco


You can watch how i play it in youtube  http://www.youtube.com/watch?v=Aar4PaytVOU  I 
it can help you

G|------------11--13-------|
D|-------------------------|
A|-------------------------|
E|-------------------------|


Go on
G|---------------------------------------|
D|---------------------------------------|
A|--------------------------------------7|
E|-4--------44---------4--------44-------|

G|--------------------------------------------------------|
D|--------------------------------------------------------|
A|---------------2--4/6-------22--------4/6 4-2-4---------|
E|-------44--------------------------22------------------4|


Innocence..
G|--------------------------------------------------------|
D|--------------------------------------------------------|
A|---777------------2--4/6-------22----------4/6 4-2-4----| (X2)
E|-------------44--------------------------22-------------|


Go on
G|---------------------------------------|
D|---------------------------------------|
A|--------------------------------------7|
E|-4--------44---------4--------44-------|

Accidents...
G|--------------------------------------------------------|
D|--------------------------------------------------------|
A|---------------2--4/6-------22--------4/6 4-2-4---------|
E|-------44--------------------------22---------------4---|

Pick backbones..

G|--------------------------------------------------------|
D|--------------------------------------------------------|
A|---777------------2--4/6-------22----------4/6 4-2-4----|
E|-------------44--------------------------22-------------|

Go on

G|-------------------------------------------------------------|
D|-------------------4-3-------------------6-----43------------|
A|-------------------------4------------------------6--4--2/3--|
E|--444444444----2--------------4444444------------------------|


Go on grab your...(Chorus)

G|-----------------------------------------------------------|
D|--------------4-3------------------------6----4-3----------|
A|--------------------6-4---4/6-----------------------643----| (X2)
E|-4---------------------------------4-----------------------|


Go on
G|---------------------------------------|
D|---------------------------------------|
A|--------------------------------------7|
E|-4--------44---------4--------44-------|


G|------------------------------------------------------|
D|------------------------------------------------------|
A|---------------2--4/6-------22--------4/6 4-2-4-------|
E|-------44--------------------------22----------------4|


Yellow sourches..
G|--------------------------------------------------------|
D|--------------------------------------------------------|
A|---777------------2--4/6-------22----------4/6 4-2-4----| (x2)
E|-------------44--------------------------22-------------|


Go on

G|-------------------------------------------------------------------|
D|-------------------4-3---------------------6-----43----------------|
A|--------------------------4-----------------------------6--4--2/3--|
E|--444444444----2-----------------4444444---------------------------|


Chorus (X1)

Go on

G|------------------------------------------|
D|---------------------------------------|--|
A|------------------------------------------| (X2)
E|---4----------44---------4----44----------|

G|------------------------------------------------|
D|------------------------------------------------|-
A|------------------------------------------------|
E|---4----------44---------4----44--------2-4-2-4-|
comments
We did not receive enough feedback on this tab! Please rate:
print report bad tab
1 2 3 4 5
I want to post or [tab]
guest
You may want to rate the tab now too:
select rating
Please do not post tabs as comments. Select "correction" instead!