Oops, an error
Loading. Please wait.

Shes A Handsome Woman Bass Tab

version 4
version 4

Whole song

Interactive

463 views 1 this week
no commentswrite comment
1 2 3 4 5
3 more votes to show rating
add to favorites
launch autoscroll
font size
0
reset
guitar tuner
Autoscroll
slow
fast
+/-
esc
set tempo
stop
Help us to improve Ultimate-Guitar.com Take our survey!
×
Author
-------------------------------------------------------------------------------
			     She's A Handsome Woman - Panic At The Disco
-------------------------------------------------------------------------------

Tabbed By : MusicMan24
e-mail: a7t1r1@hotmail.com

Ok, the other bass tabs for this song are good, but the tuning is wrong


Tuning: Standard D (DGCF)


Intro x1

F|------------------------------------------|
C|1920~--/----------------------------------|
G|------------------------------------------|
D|----------6~--/---66~--/---6~--/---66~--/-|


Verse

F|------------------------------------|
C|4-----------------------------------|
G|--------4--6-8-4--4------6-8-6-4-6--| x1
D|---6--6------------4--4-----------6-|

F|----------------------------------------|
C|4-4-4~----------------------------------|
G|------------4--6-8-4--4------6-8-6-4-6~-| x2
D|--------6--6-----------4--4-------------|


Interlude x1

F|--------------------------------|
C|--------------------------------|
G|--------------------------------|
D|6~--/---66~--/---6~--/---66~--/-|


Verse

F|------------------------------------|
C|4-----------------------------------|
G|--------4--6-8-4--4-----6-8-6-4-6---| x1
D|---6--6------------4--4-----------6-|

F|-----------------------------------------|
C|4-4-4~-/---------------------------------|
G|-------------4--6-8-4--4------6-8-6-4-6~-| x1
D|---------6--6-----------4--4-------------|


Pre-Chorus

F|-----------------------|
C|---------3333----------|
G|-------------8-6----8~-|
D|6666-4444-------10-8---|


Chorus

F|-----------------------------------|
C|------3--------------------3-------|
G|--------8-6----6~-------8----8-6-5-|
D|6666-4-----10-8----666---4---------|


Interlude x1

F|--------------------------------|
C|--------------------------------|
G|--------------------------------|
D|6~--/---66~--/---6~--/---66~--/-|


Verse

F|------------------------------------|
C|4-----------------------------------|
G|--------4--6-8-4--4-----6-8-6-4-6---| x1
D|---6--6------------4--4-----------6-|

F|---------------------------------------|
C|4-4-4----------------------------------|
G|------------4--6-8-4--4-----6-8-6-4-6~-| x2
D|-------6--6------------4--4------------|

Pre-Chorus x1
Chorus x2

Outro

F|-------------------------------------------------------------------|
C|-------------------------------------------------------------------|
G|-------------------------------------------------------------------|
D|6~--/---66~--/---6~--/---66~--/-4--6~--/---66~--/---6~--/---66~--/-|

F|-------------------------------------------|
C|-------------------------------------------|
G|-------------------------------------------|
D|4--6~--/---66~--/---6~--/---66~--/---4--6/-|


Pause


F|-----------------------|
C|-----------------------|
G|-----------------------|
D|6~--/---66~--/---6~--/-|



| /  slide up
| \  slide down
| h  hammer-on
| p  pull-off
| ~  vibrato
| +  harmonic
| x  Mute note
===============================================================================
Suggest correction
Give kudos to tab author, rate the tab!
1 2 3 4 5
comments
print report bad tab
guest
You may want to rate the tab now too:
select rating
Wanna post a correction for this tab? Suggest correction