Oops, an error
Loading. Please wait.

That Green Gentleman Bass Tab

version 1
version 1

Whole song

Interactive

3,541 views 9 this week
no commentswrite comment
1 2 3 4 5
please rate
add to favorites
launch autoscroll
font size
0
reset
guitar tuner
Autoscroll
slow
fast
+/-
esc
set tempo
stop
Help us to improve Ultimate-Guitar.com Take our survey!
×
Author
Tuning
D G C F A D
-------------------------------------------------------------------------------
	That Green Gentleman (Things Have Changed) - Panic! At The Disco
-------------------------------------------------------------------------------

Tabbed By : MusicMan24
e-mail: a7t1r1@hotmail.com

Once again, I tabbed this song because the other versions are
in the wrong tuning.


Tuning: D Standard  (DGCF)


Intro/Verse x1 (Come in at 0:05)

F|--------------------------------------------------|
C|----------3----3--7-7-7-7-5-5-5-5-3-3-3-3-3-3-3-3-|
G|3~---------3~-------------------------------------|
D|--------------------------------------------------|

F|------------------------------------------|
C|------3----3--7-7-7-7-5-5-5-5-3-3-3-3-----|
G|3~-----3~----------------------------3456-|
D|------------------------------------------|


Verse x1

F|-------------------------------------------|
C|-------------------------------------------|
G|7-7-7--7-7-7-6-5-5-5--5-5-5-4-3~---3~---2--|
D|-----7--------------5--------------------5-|

F|---------------------------------------------------------------------|
C|-----------------------------------6-6-6-6-8-8-8-8--7~-/6~--/5~--/4~-|
G|7-7-7--7-7-7-6-5-5-5--5-5-5-4-3~-------------------------------------|
D|-----7--------------5------------------------------------------------|


Chorus x1

F|----------------------------------------------55-77---------------------------|
C|---------------3-3-3-3-3-3-3-3-----33-77-55-77-----------------------------3~-|
G|3-3-3-3-5-5-5-5---------------55-77-----------------3--3--3--3--5--5--5--5----|
D|------------------------------------------------------------------------------|


Verse x1  (Come at 1:12)

F|------------------------------------------|
C|3-3----3--7-7-7-7-5-5-5-5-3-3-3-3-3-3-3-3-|
G|------------------------------------------|
D|------------------------------------------|

F|------------------------------------------|
C|------3----3--7-7-7-7-5-5-5-5-3-3-3-3-----|
G|3~-----3~----------------------------3456-|
D|------------------------------------------|

F|-----------------------------------------------------------------------------|
C|-----------------------------------------------------------------------------|
G|7-7-7--7-7-7-6-5-5-5--5-5-5-4-3~---33--3~--2/--7-7-7--7-7-7-6-5-5-5--5-5-5-4-|
D|-----7--------------5-------------------------------7--------------5---------|

F|---------------------------------------------------------|
C|-----------------6-6-6-6-8-8-8-8-8-8-8-8--7~-/6~-/5~-/4~-|
G|3~----33~---3~-------------------------------------------|
D|---------------------------------------------------------|


Chorus x1

F|-------------------------------------------------55-77-|
C|---------------3-3-3-3-3-3-3-3-----------7--55-77------|
G|3-3-3-3-5-5-5-5---------------5-5-5-5-5-5--------------|
D|-------------------------------------------------------|

F|----------------------------------55-77-|
C|-----------------------33-77-55-77------|
G|3--3-2--2---------55-77-----------------| x5
D|---------5--5-3--3----------------------|

And on the 6th time

F|----------------------------------------------------------------------------------|
C|-----------------------33-77-6-6-6-6-8-8-8-8-8-8-8-8--7~--/6~--/5~--/4~--/3~~~~~~-|
G|3--3-2--2---------55-77-----------------------------------------------------------|
D|---------5--5-3--3----------------------------------------------------------------|



| /  slide up
| \  slide down
| h  hammer-on
| p  pull-off
| ~  vibrato
| +  harmonic
| x  Mute note
===============================================================================
Suggest correction
Give kudos to tab author, rate the tab!
1 2 3 4 5
comments
print report bad tab
guest
You may want to rate the tab now too:
select rating
Wanna post a correction for this tab? Suggest correction