Oops, an error
Loading. Please wait.

That Green Gentleman tab

version 2
version 2

Whole song

Interactive

14,250 views 57 this week
4 commentsread comments
1 2 3 4 5
x 6
add to favorites
×
Save as Personal and add changes to this tab that will be seen only by you. Learn more ›
×
You can save this tab as Personal to edit and correct it or add notes. All changes will be seen only by you. Learn more »
launch autoscroll
font size
0
reset
how to read this tab
guitar tuner
edit
Autoscroll
slow
fast
+/-
esc
set tempo
stop
Here is how i think this song is played. Im pretty sure this is correct. this is the
version so there are more guitars then in Panic. This is probably the most complex song on
album. This tab is a little confusing but you should be able to figure it out. A lot of 
notes and chords can be hard to hear but i listened to the song in each earbud and
i got it all.


guitar 1-acoustic drop d(DADGBe)
Guitar 2-Electric drop d(DADGBe)-clean
Guitar 3-Electric drop d(DADGBe)-clean
Guitar 4-Electric drop d(DADGBe)-distorted

legend
*= part being played has already been tabbed. look up for it.
x= dead note
h= hammer-on
p= pull off
()= notes in parentheses are optional
/= slide up
pm/.= palm mute
~= vibrato/hold note

Intro

Guitar 1 x2
e|--------------|
B|-3-333-3-33-3-|
G|-x-xxx-x-xx-0-|
D|-3-333-3-33-1-|
A|-1-111-1-11---|
D|--------------|

Tntro pt 2

* guitar 1 plays intro

guitar 2 x1
e|--------------|
B|--6-6-6-6-----|
G|-7-7-7-7-7~~~-|
D|--------------|
A|--------------|
D|--------------|

Verse 1

Guitar 1
e|--------------|
B|-3-333-3-33-3-|
G|-x-xxx-x-xx-0-|
D|-3-333-3-33-1-|
A|-1-111-1-11---|
D|--------------|

Guitar 3
e|--------------|
B|------------3-|
G|------------0-|
D|------------1-|
A|--------------|
D|--------------|

then

Guitar 1
e|--------------|
B|-3-333-3-33-3-|
G|-x-xxx-x-xx-0-|
D|-3-333-3-33-1-|
A|-1-111-1-11---|
D|--------------|

Guitar 3
e|--------------|
B|------------3-|
G|-3----------0-|
D|-3----------1-|
A|-1------------|
D|--------------|

then

Guitar 1
e|-------------------------------|
B|-------------------------------|
G|-------------------------------|
D|-5-5555-3-33-33-1-111111-11-11-| those are 1's
A|-5-5555-3-33-33-1-111111-11-11-|
D|-5-5555-3-33-33-1-111111-11-11-|

Verse pt 2
* guitar 1 plays verse
* guitar 3 plays verse

Guitar 4-2.1 x2
e|------------|
B|------------|
G|------------|
D|-3h555-3-55-|
A|------------|
D|------------|

GUitar 4-2.2 x2
e|--------------------|
B|--------------------|
G|--3-3h5-3--3-3h5-3--|
D|-5--------5---------|
A|--------------------|
D|--------------------|

Prechorus pt 1

Guitar 2
e|--5---3------------|
B|-3-3-1-1-----------|
G|-------------------|
D|-------------------|
A|-------------------|
D|-------------------|

Prechorus pt 2

* Guitar 1 plays intro
* Guitar 4 plays verse part 2-2.1

GUitar 3
e|----1-----------------|
B|---------3----------3-|
G|------3h5-5-3----3h5--|
D|--3-----------3h5-----|
A|-1--------------------|
D|----------------------|

* Play Prechorus pt 1

Prechorus pt 3

Guitar 1
e|-------------------------------|
B|-3-333-3-33-3------------------|
G|-x-xxx-x-xx-0------------------|
D|-3-333-3-33-1-4-4-4-4-6-6-6-6--|
A|-1-111-1-11---4-4-4-4-6-6-6-6--|
D|--------------4-4-4-4-6-6-6-6--|

Guitar 3
e|----1--------------------------|
B|---------3---------------------|
G|------3h5-5-3----3-5-6-6-6-5p3-|
D|--3-----------4-6--------------|
A|-1-----------------------------|
D|-------------------------------|

GUitar 4
e|-------------------------------|
B|-----------------7-----9-------|
G|-------------------------8-----|
D|-3h5-5-5p3------4---4/6----6---|
A|-------------------------------|
D|--------------4----------------|


Chorus

Guitar 1 & guitar 2 part 1
e|----------------------------------------------|
B|--------(3-33-3)------------------------------|
G|-33333---2-22-2-----------555-555-------------|
D|-33333-x-2-22-2-x-555-555-555-555-33-33333----|
A|-11111-x-0-00-0-x-555-555-333-333-33-33333----|
D|----------------x-555-555---------33-33333----|

Guitar 1 & guitar 2 part 2
e|-------------------------|
B|-------------------------|
G|-33333-222----------8~~~-|
D|-33333-222-555-5555-8~~~-|
A|-11111-000-555-5555-6~~~-|
D|-----------555-5555------|

Guitar 3 x 1.5                 0.5
e|----------5---------3---------|----1------5-|
B|--6------------------------4--|--2---2-2/5--|
G|-7-------5---------3------0---|-------------|
D|------------------------------|-------------|
A|------------------------------|-------------|
D|------------------------------|-------------|

Verse 2

*guitar 1 plays verse 1
*GUitar 2 plays verse 1
*Guitar 4 plays verse pt 2

Prechorus 2

*Guitar 2 plays Prechorus pt 1

then

*guitar 1 and 3 play verse 1
*guitar 4 plays verse pt 2-2.1

then

Guitar 2
e|--5---3------------|
B|-3-3-1-1-----------|
G|-------------------|
D|-------------------|
A|-------------------|
D|-------------------|

Guitar 3 -(this could be bass or guitar)
e|--------------------------------|
B|--------------------------------|
G|-----------------5-5-55-5-5-555-|
D|-55-5-55-55-5-55-5-5-55-5-5-555-|
A|-55-5-55-55-5-55-3-3-33-3-3-333-|
D|-55-3-55-55-3-55--------5-------|
pm .. . .. .. . .. . . .. . . ...

* all guitars-prechorus pt 2

Chorus 2
* guitar 1 & 2 play chorus pt 1 x4
* Guitar 3 plays chorus x4

then

*guitar 1 & 2 play chorus pt 1 x2
*guitar 3 plays prechorus pt 2 and 3 x2

end on

Guitar 2
e|-6-|
B|-7-|
G|-8-|
D|-8-|
A|-6-|
D|---|

so thats it-pm me if i need to correct it. sorry if it was too confusing.

            
            
Suggest correction
Creating personal tab
Creating personal tab
You can edit any tab online and save it as your Personal.

You can edit, replace or remove any tab part or add personal notes – all changes will be seen only by you.

Personal tabs can be accessed anytime from any device, even offline.
Learn more »
comments
print report bad tab
4 comments total. Showing first comments.
0 reply
Manovision 705 Apr 05, 2008 10:31 PM

Why would anyone want to play this song as you've here transcribed it? This is a weak submission, albeit creative. The song is played in D.

0 reply
rhyezkie 800 Jun 20, 2008 10:15 AM

lol...this is whole-step down!!ver.1 is accurate:)

0 reply
lao123 335 Sep 23, 2008 08:15 PM

lolz... People are critising you... Alot of the stuf in this tab helped me hear parts i wouldn't normally of in my GP tab (ver1)

guest
You may want to rate the tab now too:
select rating
Wanna post a correction for this tab? Suggest correction