Oops, an error
Loading. Please wait.

That Green Gentleman Bass

version 3
version 3

Whole song

Interactive

64 views 1 this week
no commentswrite comment
1 2 3 4 5
2 more votes to show rating
add to favorites
launch autoscroll
font size
0
reset
guitar tuner
Autoscroll
slow
fast
+/-
esc
set tempo
stop
Author
Difficulty
intermediate
About this tab version
Based off of the studio version. Enjoy. Was this info helpful? Yes No
Listen for timing. First note comes in after 8 beats. Tabbed by ear.

[Intro]

(0:05 - 0:19)
G|---------------------------------------------------------------------------|
D|-------------------1------1--5-5-5-5-3-3-3-3-1-1-1-1-1-1-1-1---------------|
A|--1~-----------------1~----------------------------------------------------|
E|---------------------------------------------------------------------------|

(0:19 - 0:29)
G|---------------------------------------------------------------------------|
D|------------1----------1--5-5-5-5-3-3-3-3-1-1-1-1-1------------------------|
A|--1~----------1~------------------------------------2-3-4------------------|
E|---------------------------------------------------------------------------|


[Verse 1]

(0:30 - 0:46)
G|-----------------------------------------------------------------------------------------------|
D|-----------------------------------------1-----------------------------------------------------|
A|-5-5-5---5-5-5-4-3-3-3---3-3-3-2-1~--------1~----1-1-0---------------1-3-3-3-1-3-3-3-2-1~------|
E|-------5---------------3-------------------------------3-3-3-1-3-3-3---------------------------|

(0:47 - 0:49)
G|---------------------------------------------------------------------------|
D|-1--4-4-4-4-6-6-6-6--------------------------------------------------------|
A|---------------------------------------------------------------------------|  (leads right into chorus)
E|---------------------------------------------------------------------------|


[Chorus]

(0:50 - 1:02)
G|-----------------------------------------------------------------------------|
D|-5~--4~--3~--2~-----------------1-1~--1-1~-----------------------------------|
A|------------------1-1~---5-5~----------------3-3~--3-3-5-6--------------3-3--|
E|-----------------------------------------------------------1-1-3-3-5-5-------|

(1:02 - 1:10)
G|---------------------------------------------------------------------------|
D|-------------------------1~------------------------------------------------|
A|-1--1--0--0----------------------------------------------------------------|
E|-------------3--3--1-1-----------------------------------------------------|


[Lead into second verse]

(1:10 - 1:20)
G|---------------------------------------------------------------------------|
D|-------1-1------1--5-5-5-5-3-3-3-3-1-1-1-1-1-1-1-1-------------------------|
A|---------------------------------------------------------------------------|
E|---------------------------------------------------------------------------|

(1:20 - 1:30)
G|---------------------------------------------------------------------------|
D|------------1----------1--5-5-5-5-3-3-3-3-1-1-1-1-1------------------------|
A|--1~----------1~-------------------------------------2-3-4-----------------|
E|---------------------------------------------------------------------------|


[Verse 2]

(1:30 - 1:50)
G|-----------------------------------------------------------------------------------------------------|
D|----------------------------------------------------------------------------------------------1------|
A|-5-5-5---5-5-5-4-3-3-3---3-3-3-2-1~--------1~----1-1-0---------------1-3-3-3-1-3-3-3-2-1~-------1~---|
E|-------5---------------3---------------1-1-------------3-3-3-1-3-3-3---------------------------------|

(1:50 - 1:56)
G|---------------------------------------------------------------------------|
D|---------1--4-4-4-4-6-6-6-6-6-6-6-6----------------------------------------|
A|--1~-----------------------------------------------------------------------|  (leads right into chorus)
E|---------------------------------------------------------------------------|


[Chorus]

(1:56 - 2:08)
G|--------------------------------------------------------------------------------------|
D|-5~--4~--3~--2~-----------------1-1~--1-1~--------------------------------------------|
A|------------------1-1~---5-5~----------------3-3~--3-3-5-6-------------3-3------------|
E|-----------------------------------------------------------1-1-3-3-5-5----------------|

(2:08 - 2:18)
G|-------------------------------------------------2-2-5-5-------------------|
D|---------------------------------1-1-5-5-3-3-5-5---------------------------|
A|-1--1--0--0--------------3-3-5-5-------------------------------------------|
E|-------------3--3--1--1----------------------------------------------------|

(2:19 - 2:29)
G|-------------------------------------------------2-2-5-5-------------------|
D|---------------------------------1-1-5-5-3-3-5-5---------------------------|
A|-1--1--0--0--------------3-3-5-5-------------------------------------------|
E|-------------3--3--1--1----------------------------------------------------|

(2:29 - 2:39)
G|-------------------------------------------------2-2-5-5-------------------|
D|---------------------------------1-1-5-5-3-3-5-5---------------------------|
A|-1--1--0--0--------------3-3-5-5-------------------------------------------|
E|-------------3--3--1--1----------------------------------------------------|

(2:39 - 2:49)
G|---------------------------------------------------------------------------|
D|---------------------------------1-1-5-5-----------------------------------|
A|-1--1--0--0--------------3-3-5-5-------------------------------------------|
E|-------------3--3--1--1------------------1--1--1--1------------------------|


[Outro]

(2:49 - to end)
G|--------------------------------------------------------------------------------------|
D|--------------------------------------4-4-4-4-6-6-6-6-6-6-6-6-5~--4~--3~--2~--1~------|
A|-1-1~--0-0~--------------3-3~--5-5-6--------------------------------------------------|
E|-------------3-3~--1-1~---------------------------------------------------------------|


************************************

| ~ Let note ring

************************************
Suggest correction
Give kudos to tab author, rate the tab!
1 2 3 4 5
comments
print report bad tab
guest
You may want to rate the tab now too:
select rating
Wanna post a correction for this tab? Suggest correction