Oops, an error
Loading. Please wait.

That Green Gentlemen Bass Tab

7,978 views 9 this week
1 commentread comment
1 2 3 4 5
excellent!
x 5
add to favorites
launch autoscroll
font size
0
reset
guitar tuner
Tab Pro tools
  • play this tab
  • loop segment
  • change instrument
  • show fretboard
  • metronome
Autoscroll
slow
fast
+/-
esc
set tempo
stop
Contributor
Difficulty
novice
This is my second tab.
I love this band and this album so im going to try and tab out the whole cd, i did nine 
the afternoon for the bass, now i will attempt to do that green gentlemen than i will 
Northern Downpour


Intro/verse (bass comes in at 5 seconds)(begin second note when urie finishes singin 
are shapin up to be pretty..odd)
G---------------------------------------------------------------------|
D---------1-----1---5-5-5-5--3-3-3-3--1-1-1-1-1-1-1-1-----------------|
A--1~-------1~--------------------------------------------------------|
E---------------------------------------------------------------------|

G---------------------------------------------------------------------|
D---------1-----1---5-5-5-5--3-3-3-3--1-1-1-1-------------------------|
A--1~-------1~--------------------------------1234--5-5-5--5-5-5-4----|
E--------------------------------------------------------5------------|

G------------------------------------------------------------------------|
D-------------------------1-1--------------------------------------------|
A-3-3-3--3-3-3-2-1-1-11-1-----1-1-11-1-0---5-5-5--5-5-5-4-3-3-3--3-3-3-2-|
E------3--------------------------------3-------5---------------3--------|

G--------------------------------------------|
D----------1-1--4-4-4-4-6-6-6-6--5~/4~/3/~2~-|
A-1-1-11-1-----------------------------------|
E--------------------------------------------|

Chorus
G-----------------------------------------------------33-55-----------|
D-------------------1-1-1-1-1-1-1-1-------11-55-33-55-----------------|
A-1-1-1-1--3-3-3-3------------------33-55-------------------1-1-1-1---|
E---------------------------------------------------------------------|

G---------------------------------------------------------------------|
D---------1-1-1-1---------1~------------------------------------------|
A-3-3-3-3---------5-5-5-5---------------------------------------------|
E---------------------------------------------------------------------|

verse (again wait until he finish singing I want to go where everyone goes....)
G---------------------------------------------------|
D---1-1---1~---5-5-5-5--3-3-3-3--1-1-1-1-1-1-1-1----|
A---~-----------------------------------------------|
E---------------------------------------------------|

G---------------------------------------------------------------------|
D------1-----1---5-5-5-5--3-3-3-3--1-1-1-1----------------------------|
A--1~-----1~------------------------------1234--5-5-5--5-5-5-4--------|
E----------------------------------------------------5----------------|

G------------------------------------------------------------------------|
D-------------------------1-1--------------------------------------------|
A-3-3-3--3-3-3-2-1-1-11-1-----1-1-11-1-0---5-5-5--5-5-5-4-3-3-3--3-3-3-2-|
E------3--------------------------------3-------5---------------3--------|

G----------------| x3
D----------1~----|
A-1-1-11-1-------|
E----------------|

G-------------------------------------|
D-4-4-4-4-6-6-6-6-6-6-6-6-5~/4~/3/~2~-|
A-------------------------------------|
E-------------------------------------|

Chorus
G-------------------------------------------------------33-55-|
D-----------------1-1-1-1-1-1-1-1-------------5-3-3-3-3-------|
A-1-1-1-1-3-3-3-3-----------------3-3-3-3-3-3-----------------|
E-------------------------------------------------------------|


G------------------------------------33-55--|x4
D------------------------11-55-33-55--------|
A-1-1--3-3---------33-55--------------------|
E----------3-3-1-1--------------------------|


G-------------------------------------------------------------------|
D------------------------11-55-4-4-4-4-6-6-6-6-6-6-6-6-5/4/3/2/-1~~~|
A-1-1--3-3---------33-55--------------------------------------------|
E----------3-3-1-1--------------------------------------------------|
comments
print report bad tab
1 comment total.
0 reply
B4ss m4st3r wrote on December 5 2008, 12:05 pm

Nice one cheers for the tab

I want to post or [tab]
guest
You may want to rate the tab now too:
select rating
Please do not post tabs as comments. Select "correction" instead!