Oops, an error
Loading. Please wait.

The End Of All Things tab

version 2
version 2

Whole song

580 views 1 this week
2 commentsread comments
1 2 3 4 5
x 6
add to favorites
×
Save as Personal and add changes to this tab that will be seen only by you. Learn more ›
×
You can save this tab as Personal to edit and correct it or add notes. All changes will be seen only by you. Learn more »
launch autoscroll
font size
0
reset
how to read this tab
guitar tuner
edit
Autoscroll
slow
fast
+/-
esc
set tempo
stop
Author
Difficulty
----------------------------------------------------------------------------
               The End of All Things - Panic At The Disco
----------------------------------------------------------------------------

Tabbed by: eimeek

Tuning: standard

This is my first tab, so please drop a comment if you see anything that needs to be 
changed! Enjoy!


/ = slide up


(Intro:)

e-|--------------------11----------------------------|
B-|-9-11-13-8-6----9-11--11-9------------------------| ×2
G-|--------------------------------------------------|
D-|--------------------------------------------------|
A-|--------------------------------------------------|
E-|--------------------------------------------------|


(Verse 1:)

e|----------------------11---------------------------------------------------|
B|--9-11-13-8-6-----9-11--11-9-----9-11-13-8-6-----9-11-13-11-11-------------| 
G|---------------------------------------------------------------------------|
D|---------------------------------------------------------------------------|
A|---------------------------------------------------------------------------|
E|---------------------------------------------------------------------------|
Whether...      I am always...  Any change..    We are young again..


(Chorus:)

e|---------------------------------------------------------------------------|
B|--6-8-9-11-9-13-11-----6-8-9-11-9-16-11------------------------------------| Weigh us 
G|---------------------------------------------------------------------------|
D|---------------------------------------------------------------------------|
A|---------------------------------------------------------------------------|
E|---------------------------------------------------------------------------|
down...        Weigh us down....

(Ahhhh.. bit:)

e|--11/13---------------11/13----------------11/13---------------------------|
B|--------9-11-13-8-----------9-11-16-11-----------9-11-13-8-----------------|
G|---------------------------------------------------------------------------|
D|---------------------------------------------------------------------------|
A|---------------------------------------------------------------------------|
E|---------------------------------------------------------------------------|

e|--11/13--------------------------------------------------------------------|
B|--------9-11-16-11-9-------------------------------------------------------|
G|---------------------------------------------------------------------------|
D|---------------------------------------------------------------------------|
A|---------------------------------------------------------------------------|
E|---------------------------------------------------------------------------|


(Verse 2:)

e|----------------------11---------------------------------------------------|
B|--9-11-13-8-6-----9-11--11-9-----9-11-13-8-6-----9-11-13-11-11-------------| In 
G|---------------------------------------------------------------------------|
D|---------------------------------------------------------------------------|
A|---------------------------------------------------------------------------|
E|---------------------------------------------------------------------------|
these...     Many things...  But the way..   Will remain the same..


(Chorus:)

e|---------------------------------------------------------------------------|
B|--6-8-9-11-9-13-11-----6-8-9-11-9-16-11------------------------------------| Weigh us 
G|---------------------------------------------------------------------------|
D|---------------------------------------------------------------------------|
A|---------------------------------------------------------------------------|
E|---------------------------------------------------------------------------|
down...        Weigh us down....


(Ahhhh.. bit:)

e|--11/13---------------11/13----------------11/13---------------------------|
B|--------9-11-13-8-----------9-11-16-11-----------9-11-13-8-----------------|
G|---------------------------------------------------------------------------|
D|---------------------------------------------------------------------------|
A|---------------------------------------------------------------------------|
E|---------------------------------------------------------------------------|

e|--11/13--------------------------------------------------------------------|
B|--------9-11-16-11-9-11-13---9---------------------------------------------|
G|---------------------------------------------------------------------------|
D|---------------------------------------------------------------------------|
A|---------------------------------------------------------------------------|
E|---------------------------------------------------------------------------|

Thank you! :)

            
            
Suggest correction
Creating personal tab
Creating personal tab
You can edit any tab online and save it as your Personal.

You can edit, replace or remove any tab part or add personal notes – all changes will be seen only by you.

Personal tabs can be accessed anytime from any device, even offline.
Learn more »
comments
print report bad tab
2 comments total.
+1 reply
arvidluidens05 10 Dec 09, 2015 07:38 AM

I think its a pretty accurate tab

+1 reply
kjmreyes005 10 May 24, 2017 11:01 PM

that 16 can also be 11 in e so its easier

guest
You may want to rate the tab now too:
select rating
Wanna post a correction for this tab? Suggest correction