Oops, an error
Loading. Please wait.

The End Of All Things tab

version 3
version 3

Whole song

217 views 1 this week
no commentswrite comment
1 2 3 4 5
2 more votes to show rating
add to favorites
×
Save as Personal and add changes to this tab that will be seen only by you. Learn more ›
×
You can save this tab as Personal to edit and correct it or add notes. All changes will be seen only by you. Learn more »
launch autoscroll
font size
0
reset
how to read this tab
guitar tuner
edit
Autoscroll
slow
fast
+/-
esc
set tempo
stop
Tabbed by: jcameronp
Tuning: standard, capo on 1 (notes relative to capo, so fret 7 with capo on 1 is actually played at fret 8)


Intro:

(make sure to emphasize the high e of every chord)

e|-0~-3-5-7~-2~-0~-3-5--10~-5~-3~-3-5-7~-2~-0~-3-5-10-5-3~-------------------|
B|-0~-----0~-3~-0~------7~--x~-0~-----0~-3~-0~----------0~-------------------|
G|-0~-----0~-2~-0~------7~--4~-0~-----0~-2~-0~----------0~-------------------|
D|-2~-----5~-0~-2~------7~--4~-2~-----5~-0~-2~----------2~-------------------|
A|-3~-----7~----3~------9~--5~-3~-----7~----3~----------3~-------------------|
E|---------------------------------------------------------------------------|

Verse:

Whether near or far...

e|-3-5-7~-2~-0~-3-5-10~-5~-3~-3-5-7~-2~-0~-3-5-7~-7-7-5~---------------------|
B|-----0~-3~-0~-----7~--x~-0~-----0~-3~-0~-----0~-----x~---------------------|
G|-----0~-2~-0~-----7~--4~-0~-----0~-2~-0~-----0~-----4~---------------------|
D|-----5~-0~-2~-----7~--4~-2~-----5~-0~-2~-----5~-----4~---------------------|
A|-----7~----3~-----9~--5~-3~-----7~----3~-----7~-----5~---------------------|
E|---------------------------------------------------------------------------|

Prechorus:

Lay us down...

e|-3-----5-------7---------5-5-7---------5-----------------------------------|
B|-0-----0-------0---------0-0-0---------0-----------------------------------|
G|-0-----0-------0---------0-0-0---------0-----------------------------------|
D|-2-----4-------5---------4-4-5---------4-----------------------------------|
A|-3-----5-------7---------5-5-7---------5-----------------------------------|
E|---0-0---0-0-0---0-0-0-0-------0-0-0-0---0-0-0-0---------------------------|

e|-3-----5-------7---------5-3-10--------5-----------------------------------|
B|-0-----0-------0---------0-0-0---------0-----------------------------------|
G|-0-----0-------0---------0-0-0---------0-----------------------------------|
D|-2-----4-------5---------4-2-7---------4-----------------------------------|
A|-3-----5-------7---------5-3-9---------5-----------------------------------|
E|---0-0---0-0-0---0-0-0-0-------0-0-0-0---0-0-0-0---------------------------|

Guitar 2 (optional along with piano)

e|-16-18-20-18-18-20-18--16-18-20-18-16-23-----------------------------------|
B|---------------------------------------------------------------------------|
G|---------------------------------------------------------------------------|
D|---------------------------------------------------------------------------|
A|---------------------------------------------------------------------------|
E|---------------------------------------------------------------------------|

Chorus:

e|-23-22-18-23-22-18-23-22-18-20---------------------------------------------|
B|---------------------------------------------------------------------------|
G|---------------------------------------------------------------------------|
D|---------------------------------------------------------------------------|
A|---------------------------------------------------------------------------|
E|---------------------------------------------------------------------------|

or if your guitar doesn't have that many frets you can play

e|-11-10----11-10----11-10---------------------------------------------------|
B|-------11-------11-------11-13---------------------------------------------|
G|---------------------------------------------------------------------------|
D|---------------------------------------------------------------------------|
A|---------------------------------------------------------------------------|
E|---------------------------------------------------------------------------|

e|---------------------------------------------------------------------------|
B|---------------------------------------------------------------------------|
G|-0-2-4---------------------------------------------------------------------|
D|-----5-------4-------------------------------------------------------------|
A|-------------5-------------------------------------------------------------|
E|-------2-0-0---------------------------------------------------------------|

repeat the beginning part then play this

e|---------------------------------------------------------------------------|
B|---------------------------------------------------------------------------|
G|-0-2-7-2-------------------------------------------------------------------|
D|-----5-0----------end-on-5-------------------------------------------------|
A|-------------------------3-------------------------------------------------|
E|---------------------------------------------------------------------------|

INTRO
VERSE
PRECHORUS
CHORUS
VERSE
PRECHORUS
CHORUS

            
            
Suggest correction
Creating personal tab
Creating personal tab
You can edit any tab online and save it as your Personal.

You can edit, replace or remove any tab part or add personal notes – all changes will be seen only by you.

Personal tabs can be accessed anytime from any device, even offline.
Learn more »
Give kudos to tab author, rate the tab!
1 2 3 4 5
comments
print report bad tab
guest
You may want to rate the tab now too:
select rating
Wanna post a correction for this tab? Suggest correction