Oops, an error
Loading. Please wait.

The Good The Bad And The Dirty tab

version 1
version 1

Whole song

1,624 views 9 this week
no commentswrite comment
1 2 3 4 5
x 6
add to favorites
×
Save as Personal and add changes to this tab that will be seen only by you. Learn more ›
×
You can save this tab as Personal to edit and correct it or add notes. All changes will be seen only by you. Learn more »
launch autoscroll
font size
0
reset
how to read this tab
guitar tuner
edit
Autoscroll
slow
fast
+/-
esc
set tempo
stop
The Good, the Bad and the Dirty
Panic! at the Disco
Death of a Bachelor
Drop D Tuning
(DADGBE)

There really isn’t any obvious guitar in this song so there isn’t much to play! 
However, the song is incredible and I thought that I’d put out this tab in case 
you wanted something to play along with it. Feel free to add or correct!

  Verse 1 0:14
E|----------------------------------------|
B|----------------------------------------|
G|----------------------------------------|
D|----------------------------------------|
A|----------------------------------------|
D|-00-5-5--00-5-5-1-1-8-8-0-0-12-10-8-7-4-|
“Truth is that it was always going to end...”

  Verse Part 2 0:27 
E|----------------------------------------------|
B|----------------------------------------------|
G|----------------------------------------------|
D|----------------------------------------------|
A|----------------------------------------------|
D|-00-5-5--00-5-5-1-1-8-8-3-3-3-3-1-1-1-1-1-1-1-|
“True, all of the good girls act so good...”

 Chorus 0:42 (x4)
E|---------------|
B|---------------|
G|---------------|
D|-5---1---3---5-|
A|-5-1-1-1-3-3-5-|
D|-5---1---3---5-|
“If you wanna start a fight...”

 Verse 2 1:06
E|----------------------------------------|
B|----------------------------------------|
G|----------------------------------------|
D|----------------------------------------|
A|----------------------------------------|
D|-00-5-5--00-5-5-1-1-8-8-0-0-12-10-8-7-4-|
“I know what it’s like to have to trade...”

  Verse 2 Part 2 1:18 
E|----------------------------------------------|
B|----------------------------------------------|
G|----------------------------------------------|
D|----------------------------------------------|
A|----------------------------------------------|
D|-00-5-5--00-5-5-1-1-8-8-3-3-3-3-1-1-1-1-1-1-1-| 
“There’s only two ways that these things can go...”

Chorus 1:34 (x4)
E|---------------|
B|---------------|
G|---------------|
D|-5---1---3---5-|
A|-5-1-1-1-3-3-5-|
D|-5---1---3---5-|
“If you wanna start a fight...”

Bridge 1:58 (x2) (play the last set of 3’s only on the first time)
E|----------------------------------------|
B|----------------------------------------|
G|----------------------------------------|
D|-1-1-1-1--5-5--3-3--1-1-1-1--8-8--3-(3)-|
A|-1-1-1-1--5-5--3-3--1-1-1-1--8-8--3-(3)-|
D|-1-1-1-1--5-5--3-3--1-1-1-1--8-8--3-(3)-|
“You’ve been gone so long...”

Chorus 2:24 (x3)
E|---------------|
B|---------------|
G|---------------|
D|-5---1---3---5-|
A|-5-1-1-1-3-3-5-|
D|-5---1---3---5-|
“If you wanna start a fight...”

Ending 2:43 (x1)
E|-----------|
B|-----------|
G|-----------|
D|-5---1---3-|
A|-5-1-1-1-3-|
D|-5---1---3-|
“Oh...”

            
            
Suggest correction
Creating personal tab
Creating personal tab
You can edit any tab online and save it as your Personal.

You can edit, replace or remove any tab part or add personal notes – all changes will be seen only by you.

Personal tabs can be accessed anytime from any device, even offline.
Learn more »
comments
print report bad tab
guest
You may want to rate the tab now too:
select rating
Wanna post a correction for this tab? Suggest correction