Oops, an error
Loading. Please wait.

The Piano Knows Something I Dont Know Tab

version 1
version 1

Whole song

Interactive

2,652 views 3 this week
no commentswrite comment
1 2 3 4 5
please rate
add to favorites
launch autoscroll
font size
0
reset
how to read this tab
guitar tuner
Autoscroll
slow
fast
+/-
esc
set tempo
stop
Help us to improve Ultimate-Guitar.com Take our survey!
×
Author
-------------------------------------------------------------------------------
        The Piano Knows Something I Don't Know - Panic at the Disco
-------------------------------------------------------------------------------
Tabbed by: Evan Harris
Email:

Tuning: Standard

   I won't cut my...I won't change my...It grows like..it grows nowhere..        
e|-1--------------------------0--------------1-------------0-----------------|
B|-1--------------------------0--------------3-------------3-----------------|
G|-2--------------------------1--------------2-------------2-----------------|
D|-3--------------------------2--------------0-------------2-----------------|  x3
A|---------------------------------------------------------------------------|
E|---------------------------------------------------------------------------|


  ...of course            
e|--------1------------------------------------0--0--0--0--------------------|
B|--------1---------------------------0--------0--0--0--0--------------------|
G|--------2-------------------1-----1---1------1--1--1--1--------------------|
D|--------3----------2--2--2-----2-------------2--2--2--2--------------------|
A|---------------------------------------------2--2--2--2--------------------|
E|---------------------------------------------0--0--0--0--------------------|



e|---------------------------------------------------------------------------|
B|---2--2---2-2----------------2--2---2-2------------------------------------|
G|---2--2---2-2---1------------2--2---2-2---1----2---------------------------|
D|---2--2---2-2-----2--0--4----2--2---2-2-----2------------------------------|
A|---0--0---0-0----------------0--0---0-0------------------------------------|
E|---------------------------------------------------------------------------|



e|-----1---------------------------------------------------------------------|
B|-----1--1--3--4--1---------------------------------------------------------|
G|--------------------2-----------------1------------------------------------|
D|-----------------------3-----1--1--3----3-1-3--3---------------------------|
A|----------------------------3--3--3----------------------------------------|
E|--1------------------------------------------------------------------------|


    (Play through verse)        She's steam  laugh-ing-on-the-window panes...  
e|-----1-------------------|-------------------------------------------------|
B|-----1-------------------|----2-2---2--2-----------------------------------|
G|-----2--1--3--4--1-------|----2-2---2--2--------------------2~-------------|
D|--------------------2----|----2-2---2--2-----2----1------------------------|
A|-----------------------3-|----0-0---0--0--------------4--2p0---------------|
E|--1----------------------|-------------------------------------------------|



e|----------------------5----------------------------------------------------|
B|----------------------2------------------2--2---2-2------------------------|
G|---------------2h-4-2-2-2---1------------2--2---2-2----1----2--------------|
D|-4--3--2--3----2--------2-----2--0--4----2--2---2-2------2-----------------|
A|------------------------0----------------0--0---0-0------------------------|
E|---------------------------------------------------------------------------|


                                          ...a Ballet!
e|--2---1---0-------x--/2--2--2----------------------------------------------|
B|--------------4---x--/3--3--3----------------------------------------------|
G|------------------x--/2--2--2---5--4--3------------------------------------|
D|---------------------------------------------------------------------------|
A|---------------------------------------------------------------------------|
E|---------------------------------------------------------------------------|




| /  slide up
| \  slide down
| h  hammer-on
| p  pull-off
| ~  vibrato
| +  harmonic
| x  Mute note
===============================================================================
Suggest correction
What's this?
You can suggest a correction to this tab. Community and Mods will review your correction and vote to approve or reject it.
comments
We did not receive enough feedback on this tab! Please rate:
print report bad tab
1 2 3 4 5
guest
You may want to rate the tab now too:
select rating
Please do not post tabs as comments. Select "correction" instead!