Oops, an error
Loading. Please wait.
We have an official This Is Gospel tab made by UG professional guitarists. Check out the tab »
×
13,893 views 36 this week
5 commentsread comments
1 2 3 4 5
x 3
add to favorites
×
Save as Personal and add changes to this tab that will be seen only by you. Learn more ›
×
You can save this tab as Personal to edit and correct it or add notes. All changes will be seen only by you. Learn more »
launch autoscroll
font size
0
reset
how to read this tab
guitar tuner
edit
Autoscroll
slow
fast
+/-
esc
set tempo
stop
Tuning: Drop D

[Verse 1]
This is gospel for the fallen ones
Locked away in permanent slumber
Assembling their philosophies
From pieces of broken memories

[Bridge]
Oh, this is the beat of my heart, this is the beat of my heart [x2]
The gnashing teeth and criminal tongues conspire against the odds
But they haven’t seen the best of us yet

[Chorus]
E|---------------------0-------2------9---------------------------------------|
B|---------------------0-------2------9---------------------------------------|
G|---------------------0-------2------9---------------------------------------|
D|---------------------0-------2------9---------------------------------------|
A|---------------------0-------2------9---------------------------------------|
D|---------------------0-------2------9---------------------------------------|
If you love me let me go (x2)

E|-------5-------------------------0------------------------------------------|
B|-------5-------------------------0------------------------------------------|
G|-------5-------------------------0------------------------------------------|
D|-------5-------------------------0------------------------------------------|
A|-------5-------------------------0------------------------------------------|
D|-------5-------------------------0------------------------------------------|
‘Cause these words are knives that often leave scars

E|----7--------9-----7--------------------------------------------------------|
B|----7--------9-----7--------------------------------------------------------|
G|----7--------9-----7--------------------------------------------------------|
D|----7--------9-----7--------------------------------------------------------|
A|----7--------9-----7--------------------------------------------------------|
D|----7--------9-----7--------------------------------------------------------|
The fear of falling apart

E|-------5-------------------------0------------------------------------------|
B|-------5-------------------------0------------------------------------------|
G|-------5-------------------------0------------------------------------------|
D|-------5-------------------------0------------------------------------------|
A|-------5-------------------------0------------------------------------------|
D|-------5-------------------------0------------------------------------------|
And truth be told, I never was yours

E|----7--------9--------------------------------------------------------------|
B|----7--------9--------------------------------------------------------------|
G|----7--------9--------------------------------------------------------------|
D|----7--------9--------------------------------------------------------------|
A|----7--------9--------------------------------------------------------------|
D|----7--------9--------------------------------------------------------------|
The fear, the fear of falling apart

E|---------------------0-------2------9---------------------------------------|
B|---------------------0-------2------9---------------------------------------|
G|---------------------0-------2------9---------------------------------------|
D|---------------------0-------2------9---------------------------------------|
A|---------------------0-------2------9---------------------------------------|
D|---------------------0-------2------9---------------------------------------|
Oh, this is the beat of my heart, this is the beat of my heart [x2]

[Verse 2]
This is gospel for the vagabonds,
Never-do-wells and insufferable bastards
Confessing their apostasies
Led away by imperfect impostors
Oh, this is the beat of my heart, this is the beat of my heart [x2]
Don’t try to sleep through the end of the world
Bury me alive
'Cause I won’t give up without a fight

[Chorus]
E|---------------------0-------2------9---------------------------------------|
B|---------------------0-------2------9---------------------------------------|
G|---------------------0-------2------9---------------------------------------|
D|---------------------0-------2------9---------------------------------------|
A|---------------------0-------2------9---------------------------------------|
D|---------------------0-------2------9---------------------------------------|
If you love me let me go (x2)

E|-------5-------------------------0------------------------------------------|
B|-------5-------------------------0------------------------------------------|
G|-------5-------------------------0------------------------------------------|
D|-------5-------------------------0------------------------------------------|
A|-------5-------------------------0------------------------------------------|
D|-------5-------------------------0------------------------------------------|
‘Cause these words are knives that often leave scars

E|----7--------9-----7--------------------------------------------------------|
B|----7--------9-----7--------------------------------------------------------|
G|----7--------9-----7--------------------------------------------------------|
D|----7--------9-----7--------------------------------------------------------|
A|----7--------9-----7--------------------------------------------------------|
D|----7--------9-----7--------------------------------------------------------|
The fear of falling apart

E|-------5-------------------------0------------------------------------------|
B|-------5-------------------------0------------------------------------------|
G|-------5-------------------------0------------------------------------------|
D|-------5-------------------------0------------------------------------------|
A|-------5-------------------------0------------------------------------------|
D|-------5-------------------------0------------------------------------------|
And truth be told, I never was yours

E|----7--------9--------------------------------------------------------------|
B|----7--------9--------------------------------------------------------------|
G|----7--------9--------------------------------------------------------------|
D|----7--------9--------------------------------------------------------------|
A|----7--------9--------------------------------------------------------------|
D|----7--------9--------------------------------------------------------------|
The fear, the fear of falling apart

E|---------------------0-------2------9---------------------------------------|
B|---------------------0-------2------9---------------------------------------|
G|---------------------0-------2------9---------------------------------------|
D|---------------------0-------2------9---------------------------------------|
A|---------------------0-------2------9---------------------------------------|
D|---------------------0-------2------9---------------------------------------|
Oh, this is the beat of my heart, this is the beat of my heart [x2]

[Outro]
E|---------------------0-------2------9---------------------------------------|
B|---------------------0-------2------9---------------------------------------|
G|---------------------0-------2------9---------------------------------------|
D|---------------------0-------2------9---------------------------------------|
A|---------------------0-------2------9---------------------------------------|
D|---------------------0-------2------9---------------------------------------|
(x4)
Oh (This is the beat of my heart)
The fear of falling apart
Suggest correction
Creating personal tab
Creating personal tab
You can edit any tab online and save it as your Personal.

You can edit, replace or remove any tab part or add personal notes – all changes will be seen only by you.

Personal tabs can be accessed anytime from any device, even offline.
Learn more »
Give kudos to tab author, rate the tab!
1 2 3 4 5
comments
print report bad tab
5 comments total. Showing first comments.
0 reply
sammyboiy123 51 Jun 19, 2014 05:30 AM

Clearly wrong.

0 reply
deathbeds 10 Jul 28, 2014 08:44 PM

Lack of accuracy. Clearly wrong.

0 reply
lillianestephenee 10 Sep 01, 2015 03:41 AM

I really don't see it. Not accurate at all.

guest
You may want to rate the tab now too:
select rating
Wanna post a correction for this tab? Suggest correction