Oops, an error
Loading. Please wait.

This Is Halloween tab

21,790 views 6 this week
9 commentsread comments
1 2 3 4 5
x 10
add to favorites
×
Save as Personal and add changes to this tab that will be seen only by you. Learn more ›
×
You can save this tab as Personal to edit and correct it or add notes. All changes will be seen only by you. Learn more »
launch autoscroll
font size
0
reset
how to read this tab
guitar tuner
edit
Autoscroll
slow
fast
+/-
esc
set tempo
stop
Author
Difficulty
This Is Halloween - Panic! at the disco

this is all iv got so far, but im pretty sure that this is all right, just listen to the 
if you have trouble with the timing, i think it just repeats after this, but im not 
ill get back to it later on. please rate me

e]---------------------------------------------------------------------]
B]---------------------------------------------------------------------]
G]---------------------------------------------------------------------]
D]--3--3--3--3-4-1--1--1--1-4-3--3--3----1--1-4-3--3-------------------]
A]---------------------------------------------------------------------]
E]---------------------------------------------------------------------]

verse: boys and girls of every age...
e]----------------------------------------------------------------------]
B]----------------------------------------------------------------------]
G]----------------------------------------------------------------------]
D]-3-3-3-3-3-4-1-1--1-1-1-1-3-4-3--3-3-3-4-6-4-1------------------------]
A]----------------------------------------------------------------------]
E]----------------------------------------------------------------------]

this our town of halloween...
e]---------------------------]
B]---------------------------]
G]---------------------------]
D]--1-1-1-3-4-------3--------]
A]----------------3-2--------]
E]---------------------------]

this is halloween...
e]----------------------------------------------------------------------------------------------]
B]----------------------------------------------------------------------------------------------]
G]----------------------------------------------------------------------------------------------]
D]--6-6-6-4-3-6-6-6-4-3-6---------------3-4--7-7-7-6-4-7-7-7-6-4-7------------4-4---------------]
A]--------------------------------6-5-5-3-2--------------------------------------7-6-4----------]
E]-------------------------------------------------------------------------------------------6--]
Suggest correction
Creating personal tab
Creating personal tab
You can edit any tab online and save it as your Personal.

You can edit, replace or remove any tab part or add personal notes – all changes will be seen only by you.

Personal tabs can be accessed anytime from any device, even offline.
Learn more »
comments
print report bad tab
9 comments total. Showing first comments.
-1 reply
lackofcolor 388 Jan 14, 2007 09:47 AM

do you have another acount? possible named psyco223? if Yes then
I KNEW YOU LOVED PANIC!

if you have no clue what im talking about go to teh lying is the most fun tab and see the comment board.

+1 reply
Back-2-Back 176 Feb 06, 2007 05:07 PM

hey, you got it kind of wrong. the use barre chords a lot in the song.

+1 reply
geetahmasta 10 Feb 11, 2007 02:37 PM

i agree.they used a lot of arpeggios and bar chords instead of simple plucking.

guest
You may want to rate the tab now too:
select rating
Wanna post a correction for this tab? Suggest correction