Oops, an error
Loading. Please wait.

Time To Dance chords

version 3
version 3

Whole song

Interactive

4,459 views 1 this week
no commentswrite comment
1 2 3 4 5
1 last vote to show rating
add to favorites
×
Save as Personal and add changes to this tab that will be seen only by you. Learn more ›
×
You can save this tab as Personal to edit and correct it or add notes. All changes will be seen only by you. Learn more »
launch autoscroll
font size
0
reset
transpose
0
reset
display chords
guitar tuner
edit
Autoscroll
slow
fast
+/-
esc
set tempo
stop
Author
Difficulty
Strumming
There is no strumming pattern for this song yet. and get +5 IQ
Well this is my first tab
I hope this will help you it's very easy to play

Intro
e|-------------------------------------|
B|-------------------------------------|
G|--777--------------------------------|
D|--777-777777-888888-777777-3333-5555-|
A|--555-777777-888888-777777-3333-5555-|
E|------555555-666666-555555-1111-3333-|

Background

E|-------------------------------------|
B|--------10--10--13--10--11—10--------|
G|----------12------------------12—10--|
D|-------------------------------------|
A|-------------------------------------|
E|-------------------------------------| x3

E|-------------------------10----------|
B|------10--------10—13—10---10-—13----|
G|---------12—-10----------------------|
D|-------------------------------------|
A|-------------------------------------|
E|-------------------------------------|

e|-------------------------------------|
B|-------------------------------------|
G|--777--------------------------------|
D|--777-777777-888888-777777-3333-5555-|
A|--555-777777-888888-777777-3333-5555-|
E|------555555-666666-555555-1111-3333-|

Background

E|-------------------------------------|
B|--------10--10--13--10--11—10--------|
G|----------12------------------12—10--|
D|-------------------------------------|
A|-------------------------------------|
E|-------------------------------------| x3

E|-------------------------10----------|
B|------10--------10—13—10---10-—13----|
G|---------12—-10----------------------|
D|-------------------------------------|
A|-------------------------------------|
E|-------------------------------------|





Verse:
       A#                      G
Well she's not bleeding on the ballroom floor
              A#                            G         F
Just for the attention 'cause that's just ridiculously on
      A#                       G
Well she sure is gonna get it, here's the setting
                           A#
Fashion magazines line the walls now
                          G     F
The walls line the bullet holes

PM
A#-G-F

Chorus:
D
Have some composure
A                      A#
Where is your posture? Oh, no, no
       A
You're pulling the trigger
F                    G
Pulling the trigger, all wrong [x2]

A#                                          G
Give me envy, give me malice, give me your attention

Give me envy, give me malice, baby give me a break
A#
When I say shotgun, you say wedding
G                 F
Shotgun, wedding, shotgun, wedding

A#
She didn't choose this role
G
But she'll play it and make it sincere so
 A#      G   F   
you cry, you cry

A#
But they believe it from the tears
                    G                        A#
And the teeth right down to the blood at her feet
                                 G
Boys will be boys hiding in estrogen
            F         A#
And wearing aubergine dreams
G                      A#...
Baby Give me a break, break, break, break

Chorus:
D
Have some composure
A                      A#
Where is your posture? Oh, no, no
       A
You're pulling the trigger
F                    G
Pulling the trigger, all wrong [x2]

PM………………………………………….
A#                G             F    A#  G   F
Come on this is screaming photo op, oh  oh  oh
A#             G            F
Come on, come on, this is screaming
          A#                         G     F
This is screaming, this is screaming photo op


A#
Boys will be boys baby
G
Boys will be boys
A#
Boys will be boys baby
G                F
Boys will be boys

A#                                            G
Give me envy, give me malice, give me your attention

Give me envy, give me malice, baby give me a break
A#
When I say shotgun, you say wedding
G                 F
Shotgun, wedding, shotgun, wedding

A#                               G
Boys will be boys hiding in estrogen
                 F
And boys will be boys
A#                               G
Boys will be boys hiding in estrogen
            F         A#
And wearing aubergine dreams

            
            
Suggest correction
Creating personal tab
Creating personal tab
You can edit any tab online and save it as your Personal.

You can edit, replace or remove any tab part or add personal notes – all changes will be seen only by you.

Personal tabs can be accessed anytime from any device, even offline.
Learn more »
Give kudos to tab author, rate the tab!
1 2 3 4 5
comments
print report bad tab
guest
You may want to rate the tab now too:
select rating
Wanna post a correction for this tab? Suggest correction