Oops, an error
Loading. Please wait.

Trade Mistakes Bass

version 1
version 1

Whole song

Interactive

1,915 views 6 this week
no commentswrite comment
1 2 3 4 5
x 4
add to favorites
×
Save as Personal and add changes to this tab that will be seen only by you. Learn more ›
×
You can save this tab as Personal to edit and correct it or add notes. All changes will be seen only by you. Learn more »
save as personal
new!
launch autoscroll
font size
0
reset
guitar tuner
Autoscroll
slow
fast
+/-
esc
set tempo
stop
Difficulty
intermediate
-----------------------------------------------------------------------------
                             Trade Mistakes - Panic! At the Disco
-----------------------------------------------------------------------------

Tuning: Standard

(Bass does not come in until 0:40)

*Pre-Chorus*
G|------------------------------|
D|------------------------------|
A|------------------------------|
E|-4-4-4-4-6-6-6-6-3-3-3-3-6~---|

*Chorus*
G|--------------------------------------------------------------------|
D|--------------------------------------------------------------------|
A|-3333333333333333--------66666666-3333333333333333-------5-6666-----|
E|-----------------44444444-------------------------4444444------6666-|

G|--------------------------------------------------------------------|
D|--------------------------------------------------------------------|
A|-3333333333333333--------5-6666-----3-3---3-3-3----------5-6-6-6-6\-|
E|-----------------44444444------6666------3------3-4444444-----------|

*Pre-Chorus* ( Start playing again at 1:40)
G|------------------------------|
D|------------------------------|
A|------------------------------|
E|-4-4-4-4-6-6-6-6-3-3-3-3-6~---|

*Chorus*
G|--------------------------------------------------------------------|
D|--------------------------------------------------------------------|
A|-3333333333333333--------5-6666----3333333333333333-------5-6666----|
E|-----------------44444444------6666----------------4444444-----6666-|

G|--------------------------------------------------------------------|
D|--------------------------------------------------------------------|
A|-3333333333333333--------5-6666-----3-3---3-3-3----------5-6-6-6-6\-|
E|-----------------44444444------6666------3------3-4444444-----------|

*Bridge* (4x)
G|------------------------------------|
D|------------------------------------|
A|---------------------------66666666-| 
E|-33333333-44444444-66666666---------|

(Rest until 3:05)
G|----------------|
D|----------------|
A|-6/12\3-3-3-3\--|
E|----------------|

G|------------------------------------------------------------------|
D|------------------------------------------------------------------|
A|------------------66666666-33333333-------------66666666-3-3-3-3\-|
E|-44444444-66666666------------------444-4-666-6-------------------|


| /  slide up
| \  slide down
| ~  vibrato

And you're done!
Suggest correction
comments
print report bad tab
guest
Wanna post a correction for this tab? Suggest correction