Oops, an error
Loading. Please wait.

Were So Starving Bass Tab

version 2
version 2

Whole song

Interactive

235 views 1 this week
no commentswrite comment
1 2 3 4 5
please rate
add to favorites
launch autoscroll
font size
0
reset
guitar tuner
Tab Pro tools
  • play this tab
  • loop segment
  • change instrument
  • show fretboard
  • metronome
×
Best way to learn
"Were So Starving"
Autoscroll
slow
fast
+/-
esc
set tempo
stop
Contributor
Difficulty
Tuning
intermediate
D G C F A D
-------------------------------------------------------------------------------
			     We're So Starving - Panic! At The Disco
-------------------------------------------------------------------------------

Tabbed By : MusicMan24
e-mail: a7t1r1@hotmail.com

This song is in D Standard, not E Standard


Tuning: D Standard  (DGCF)


Verse x1  0:24

F|------------------------------------------------------------3-----|
C|---------------3555-5-3-------------3555-5-3-------------3h5--5-3-|
G|-----------3-5---------5-3-------3-5--------5-3-------3-3---------|
D|3~---3-3-3----------------3-3-3-3--------------6-6-6-6------------|


Chorus

F|------------------------------------------|
C|------------------------------------------|
G|---------------3-3-3-3-3-3-3----------53--|
D|3-3-3-3-6-6-6-6-------------6-3-3-3-3---6-|

F|-----------------------------|
C|-----------------------------|
G|---------------------3-3-3-3-| x2
D|3-3-3-3-3-3-3-6-6-6-6--------|


Outro x2

F|-----------------------------------------------------3-----|
C|--------3555-5-3-------------3555-5-3-------------3h5--5-3-|
G|-----3-5--------5-3-------3-5--------5-3-------3-3---------|
D|3-3-3--------------3-3-3-3--------------6-6-6-6------------|

F|-------|
C|-------|
G|3~~~~~-|
D|-------|

This song is a bit tricky, so it would help to listen to the song
for the right timing.


PEACE


| /  slide up
| \  slide down
| h  hammer-on
| p  pull-off
| ~  vibrato
| +  harmonic
| x  Mute note
===============================================================================
comments
We did not receive enough feedback on this tab! Please rate:
print report bad tab
1 2 3 4 5
I want to post or [tab]
guest
You may want to rate the tab now too:
select rating
Please do not post tabs as comments. Select "correction" instead!