Oops, an error
Loading. Please wait.

You Tab

360 views 1 this week
no commentswrite comment
1 2 3 4 5
3 more votes to show rating
add to favorites
launch autoscroll
font size
0
reset
how to read this tab
guitar tuner
Autoscroll
slow
fast
+/-
esc
set tempo
stop
Help us to improve Ultimate-Guitar.com Take our survey!
×
this tab is deticated to...
Anthony Parenti
cause i love him.

www.myspace.com/panima

remember this is a tab for the first version of You.
with the piano on the track. it was put on
their myspace about January of 2006.
plus this is my first tab so it may suck.

You - Panima
Intro

but you will always have that place in my heart...
e--0~---0~---0~----|
B--0~---0~---0~----|
G--9~---9~---9~----|
D--9~---9~---9~----|
A--x----7~---x-----|
E--9~--------7~----|

Verse
its palm muted but i think it sounds better when its not.
e-------------------------------------------------------------------|
B-------------------------------------------------------------------|
G-99999999999999999999999999999999-22222222222222222222222222222222-|  X3
D-99999999999999999999999999999999-22222222222222222222222222222222-|
A-77777777777777777777777777777777-00000000000000000000000000000000-|
E-------------------------------------------------------------------|

or if u want u can play it with these chords

e-0---0-|
B-0---0-|
G-9---2-|
D-9---2-|
A-7---0-|
E-------|

Chorus
e-00000-----0000-000000000000000-|   |-0000000-00000000-0000000000000000-|
B-00000-----0000-000000000000000-|   |-0000000-00000000-0000000000000000-|
G-99999-----9999-999999999999999-|   |-9999999-99999999-9999999999999999-|
D-99999-----9999-999999999999999-|x3 |-9999999-99999999-9999999999999999-|
A-xxxxx-----7777-xxxxxxxxxxxxxxx-|   |-xxxxxxx-77777777-xxxxxxxxxxxxxxxx-|
E-99999----------777777777777777-|   |-9999999----------7777777777777777-|

repeat verse
and chorus

solo
e-7-5--4-------------7-5--4--7777/9--797---797--------7---------------/9~-|
B---------4-5-7--5-4--------------------79----79--4-5--5-4--4-5-7-5-4-----|
G-------------------------------------------------------------------------|
D-------------------------------------------------------------------------|
A-------------------------------------------------------------------------|
E-------------------------------------------------------------------------|

then
e--0~---0~---0~~----|
B--0~---0~---0~~----|
G--9~---9~---9~~----|
D--9~---9~---9~~----| x3
A--x----7~---x-~----|
E--9~--------7~~----|


e-0000000-00000000-0000000000000000-|
B-0000000-00000000-0000000000000000-|
G-9999999-99999999-9999999999999999-|x4
D-9999999-99999999-9999999999999999-|
A-xxxxxxx-77777777-xxxxxxxxxxxxxxxx-|
E-9999999----------7777777777777777-|

i kno paino finishes the song so i like to end with

e--0~---0~---0~~---0~-|
B--0~---0~---0~~---0~-|
G--9~---9~---9~~---9~-|
D--9~---9~---9~~---9~-|
A--x----7~---x-~---7~-|
E--9~--------7~~------|

the end...

lyrics

But you will always have that place in my heart

And I am here and you are Ghost
But I know I will still have you
Just call on me and I will get you through

But you will always have that place in my heart
And even if we dont go on it will never end
Trust me, Ill trust you and I will always be there

And I am near and you are gone
But I know it will never end
Lets just keep trying and it will work

But you will always have that place in my heart
And even if we dont go on it will never end
Trust me, Ill trust you and I will always be there 

and i will always be there...
Suggest correction
Give kudos to tab author, rate the tab!
1 2 3 4 5
comments
print report bad tab
guest
You may want to rate the tab now too:
select rating
Wanna post a correction for this tab? Suggest correction