Oops, an error
Loading. Please wait.

Esta Noche Tab

version 2
version 2

Whole song

Interactive

92 views 3 this week
no commentswrite comment
1 2 3 4 5
please rate
add to favorites
launch autoscroll
font size
0
reset
how to read this tab
guitar tuner
Autoscroll
slow
fast
+/-
esc
set tempo
stop
Help us to improve Ultimate-Guitar.com Take our survey!
×
    Cuantas veces me mirabas	    sin ponerte a pensar
|---------------------------------------------------------------------|
|---------------------------------------------------------------------|
|---9--9--9--9--9--9--9--9--9--9--9-6-6-6-6-6-6-6-6-6-6-6-6-6---------|  
|--10-10-10-10-10-10-10-10-10-10-10-7-7-7-7-7-7-7-7-7-7-7-7-7---------|
|--10-10-10-10-10-10-10-10-10-10-10-7-7-7-7-7-7-7-7-7-7-7-7-7---------|
|---8--8--8--8--8--8--8--8--8--8--8-5-5-5-5-5-5-5-5-5-5-5-5-5---------|

    Cuantas veces yo soñaba 	    con tu cuerpo acariciar.
|---------------------------------------------------------------------|
|---------------------------------------------------------------------|
|---9--9--9--9--9--9--9--9--9--9--9-6-6-6-6-6-6-6-6-6-6-6-6-6---------|  
|--10-10-10-10-10-10-10-10-10-10-10-7-7-7-7-7-7-7-7-7-7-7-7-7---------|
|--10-10-10-10-10-10-10-10-10-10-10-7-7-7-7-7-7-7-7-7-7-7-7-7---------|
|---8--8--8--8--8--8--8--8--8--8--8-5-5-5-5-5-5-5-5-5-5-5-5-5---------|

     Cuantas veces tus manos y mis manos      fueron complices complices de piel
|-------------------------------------------------------------------------------|
|-------------------------------------------------------------------------------|
|---9--9--9--9--9--9--9--9--9--9--9--9--9--9--6-6-6-6-6-6-6-6-6-6-6-6-6-6-6-6-6-|  
|--10-10-10-10-10-10-10-10-10-10-10-10-10-10--7-7-7-7-7-7-7-7-7-7-7-7-7-7-7-7-7-|
|--10-10-10-10-10-10-10-10-10-10-10-10-10-10--7-7-7-7-7-7-7-7-7-7-7-7-7-7-7-7-7-|
|---8--8--8--8--8--8--8--8--8--8--8--8--8--8--5-5-5-5-5-5-5-5-5-5-5-5-5-5-5-5-5-|

     Cuantas veces nos miramos nos tocamos	hasta el amanecer...
|-------------------------------------------------------------------------------|
|-------------------------------------------------------------------------------|
|---9--9--9--9--9--9--9--9--9--9--9--9--9--9--6-6-6-6-6-6-6-6-6-6-6-6-6-6-6-6-6-|  
|--10-10-10-10-10-10-10-10-10-10-10-10-10-10--7-7-7-7-7-7-7-7-7-7-7-7-7-7-7-7-7-|
|--10-10-10-10-10-10-10-10-10-10-10-10-10-10--7-7-7-7-7-7-7-7-7-7-7-7-7-7-7-7-7-|
|---8--8--8--8--8--8--8--8--8--8--8--8--8--8--5-5-5-5-5-5-5-5-5-5-5-5-5-5-5-5-5-|


    Y el tiempo paso		y todo cambio
|-------------------------|  |-------------------------|
|-------------------------|  |-------------------------|
|--9---9---9---6---6---6--|  |--9---9---9---6---6---6--|
|-10--10--10---7---7---7--|  |-10--10--10---7---7---7--|
|-10--10--10---7---7---7--|  |-10--10--10---7---7---7--|
|--8---8---8---5---5---5--|  |--8---8---8---5---5---5--|

    Y el tiempo paso		y todo acabo
|-------------------------|  |-------------------------|
|-------------------------|  |-------------------------|
|--9---9---9---6---6---6--|  |--9---9---9---6---6---6--|
|-10--10--10---7---7---7--|  |-10--10--10---7---7---7--|
|-10--10--10---7---7---7--|  |-10--10--10---7---7---7--|
|--8---8---8---5---5---5--|  |--8---8---8---5---5---5--|	

	Y esta noche va este trago por ti
|---------------------------------------------------------------------|
|---------------------------------------------------------------------|
|--2-2-2-2-2-2-2-2-2-2-2-2-2-2-2-4-4-4-4-4-4-4-4-4-4-4-4-4-4-4--------|
|--3-3-3-3-3-3-3-3-3-3-3-3-3-3-3-5-5-5-5-5-5-5-5-5-5-5-5-5-5-5--------|
|--3-3-3-3-3-3-3-3-3-3-3-3-3-3-3-5-5-5-5-5-5-5-5-5-5-5-5-5-5-5--------|
|--1-1-1-1-1-1-1-1-1-1-1-1-1-1-1-3-3-3-3-3-3-3-3-3-3-3-3-3-3-3--------|

	Y esta noche quisiera estuvieras aqui
|---------------------------------------------------------------------|
|---------------------------------------------------------------------|
|--2-2-2-2-2-2-2-2-2-2-2-2-2-2-2-4-4-4-4-4-4-4-4-4-4-4-4-4-4-4--------|
|--3-3-3-3-3-3-3-3-3-3-3-3-3-3-3-5-5-5-5-5-5-5-5-5-5-5-5-5-5-5--------|
|--3-3-3-3-3-3-3-3-3-3-3-3-3-3-3-5-5-5-5-5-5-5-5-5-5-5-5-5-5-5--------|
|--1-1-1-1-1-1-1-1-1-1-1-1-1-1-1-3-3-3-3-3-3-3-3-3-3-3-3-3-3-3--------|


|-------------------------------------------------------------------------|
|-------------------------------------------------------------------------|
|--9---9---9---6---6---6---9---9---9---6---6---6---9---9---9--4--4--4--1~-|
|-10--10--10---7---7---7--10--10--10---7---7---7--10--10--10--5--5--5--2~-|
|-10--10--10---7---7---7--10--10--10---7---7---7--10--10--10--5--5--5--2~-|
|--8---8---8---5---5---5---8---8---8---5---5---5---8---8---8--3--3--3--0~-|

   Cuantas veces te besaba  Y comenzabas a volar
|--3-3-3-3-3-3-3-3-3-3-3-3-3-3-3-3-5-5-5-5-5-5-5-|
|--5-5-5-5-5-5-5-5-5-5-5-5-5-5-5-5-5-5-5-5-5-5-5-|
|------------------------------------------------|
|------------------------------------------------|
|------------------------------------------------|
|------------------------------------------------|


  Que me dices de esos dias  no parabamos de amar
|--3-3-3-3-3-3-3-3-3-3-3-3-3-3-3-3-5-5-5-5-5-5-5-|
|--5-5-5-5-5-5-5-5-5-5-5-5-5-5-5-5-5-5-5-5-5-5-5-|
|------------------------------------------------|
|------------------------------------------------|
|------------------------------------------------|
|------------------------------------------------|

Cuantas cosas se nos fueron de las manos sin pensarlo sin querer
|--3-3-3-3-3-3-3-3-3-3-3-3-3-3-3-3-5-5-5-5-5-5-5-|
|--5-5-5-5-5-5-5-5-5-5-5-5-5-5-5-5-5-5-5-5-5-5-5-|
|------------------------------------------------|
|------------------------------------------------|
|------------------------------------------------|
|------------------------------------------------|

Y ese tiempo  tan bueno que vivimos Que jamas podra volver.
|--3-3-3-3-3-3-3-3-3-3-3-3-3-3-3-3-5-5-5-5-5-5-5-|
|--5-5-5-5-5-5-5-5-5-5-5-5-5-5-5-5-5-5-5-5-5-5-5-|
|------------------------------------------------|
|------------------------------------------------|
|------------------------------------------------|
|------------------------------------------------|


|-------------------------|  
|-------------------------|  
|--9---9---9---6---6---6--|  4 veces
|-10--10--10---7---7---7--|  
|-10--10--10---7---7---7--|  
|--8---8---8---5---5---5--|  

Cuantas veces te pedi que te olvidaras de las cosas del ayer.
|--3-3-3-3-3-3-3-3-3-3-3-3-3-3-3-3-5-5-5-5-5-5-5-|
|--5-5-5-5-5-5-5-5-5-5-5-5-5-5-5-5-5-5-5-5-5-5-5-|
|------------------------------------------------|
|------------------------------------------------|
|------------------------------------------------|
|------------------------------------------------|

Cuantas veces me pediste respetar tu manera de ser
|--3-3-3-3-3-3-3-3-3-3-3-3-3-3-3-3-5-5-5-5-5-5-5-|
|--5-5-5-5-5-5-5-5-5-5-5-5-5-5-5-5-5-5-5-5-5-5-5-|
|------------------------------------------------|
|------------------------------------------------|
|------------------------------------------------|
|------------------------------------------------|

Cuantas veces nos hemos ofendido y otras tantas gritarnos al oido
|--3-3-3-3-3-3-3-3-3-3-3-3-3-3-3-3-5-5-5-5-5-5-5-|
|--5-5-5-5-5-5-5-5-5-5-5-5-5-5-5-5-5-5-5-5-5-5-5-|
|------------------------------------------------|
|------------------------------------------------|
|------------------------------------------------|
|------------------------------------------------|

Cuantas veces nos hemos enfrentado y el amor se quedo de lado
|--3-3-3-3-3-3-3-3-3-3-3-3-3-3-3-3-5-5-5-5-5-5-5-|
|--5-5-5-5-5-5-5-5-5-5-5-5-5-5-5-5-5-5-5-5-5-5-5-|
|------------------------------------------------|
|------------------------------------------------|
|------------------------------------------------|
|------------------------------------------------|


    Y el tiempo paso		y todo cambio
|-------------------------|  |-------------------------|
|-------------------------|  |-------------------------|
|--9---9---9---6---6---6--|  |--9---9---9---6---6---6--|
|-10--10--10---7---7---7--|  |-10--10--10---7---7---7--|
|-10--10--10---7---7---7--|  |-10--10--10---7---7---7--|
|--8---8---8---5---5---5--|  |--8---8---8---5---5---5--|

    Y el tiempo paso		y todo acabo
|-------------------------|  |-------------------------|
|-------------------------|  |-------------------------|
|--9---9---9---6---6---6--|  |--9---9---9---6---6---6--|
|-10--10--10---7---7---7--|  |-10--10--10---7---7---7--|
|-10--10--10---7---7---7--|  |-10--10--10---7---7---7--|
|--8---8---8---5---5---5--|  |--8---8---8---5---5---5--|	

 y dejamos pasar nuestros momentos y cansados no hicimos el intento
|---------------------------------------------------------------------|
|---------------------------------------------------------------------|
|--2-2-2-2-2-2-2-2-2-2-2-2-2-2-2-4-4-4-4-4-4-4-4-4-4-4-4-4-4-4--------|
|--3-3-3-3-3-3-3-3-3-3-3-3-3-3-3-5-5-5-5-5-5-5-5-5-5-5-5-5-5-5--------|
|--3-3-3-3-3-3-3-3-3-3-3-3-3-3-3-5-5-5-5-5-5-5-5-5-5-5-5-5-5-5--------|
|--1-1-1-1-1-1-1-1-1-1-1-1-1-1-1-3-3-3-3-3-3-3-3-3-3-3-3-3-3-3--------|

 de salvar lo que juntos construimos Los momentos que dia con dia vivimos
|---------------------------------------------------------------------|
|---------------------------------------------------------------------|
|--2-2-2-2-2-2-2-2-2-2-2-2-2-2-2-2-2-2-2-2-----4~---------------------|
|--3-3-3-3-3-3-3-3-3-3-3-3-3-3-3-3-3-3-3-3-----5~---------------------|
|--3-3-3-3-3-3-3-3-3-3-3-3-3-3-3-3-3-3-3-3-----5~---------------------|
|--1-1-1-1-1-1-1-1-1-1-1-1-1-1-1-1-1-1-1-1-----3~---------------------|


|-------------------------------------------------------------------------|
|-------------------------------------------------------------------------|
|--9---9---9---6---6---6---9---9---9---6---6---6---9---9---9--4--4--4--1~-|  2 veces
|-10--10--10---7---7---7--10--10--10---7---7---7--10--10--10--5--5--5--2~-|
|-10--10--10---7---7---7--10--10--10---7---7---7--10--10--10--5--5--5--2~-|
|--8---8---8---5---5---5---8---8---8---5---5---5---8---8---8--3--3--3--0~-|

   Y tomando aqui muy lejos de ti
|--------------------------------------|
|--------------------------------------|
|---9--9--9--9--9--9--9-6-6-6-6-6-6-6--|  
|--10-10-10-10-10-10-10-7-7-7-7-7-7-7--|
|--10-10-10-10-10-10-10-7-7-7-7-7-7-7--|
|---8--8--8--8--8--8--8-5-5-5-5-5-5-5--|

  dando tiempo que se me curen las heridas
|--------------------------------------|
|--------------------------------------|
|---9--9--9--9--9--9--9-6-6-6-6-6-6-6--|  
|--10-10-10-10-10-10-10-7-7-7-7-7-7-7--|
|--10-10-10-10-10-10-10-7-7-7-7-7-7-7--|
|---8--8--8--8--8--8--8-5-5-5-5-5-5-5--|

   Y sentado aqui en la estacion
|--------------------------------------|
|--------------------------------------|
|---9--9--9--9--9--9--9-6-6-6-6-6-6-6--|  
|--10-10-10-10-10-10-10-7-7-7-7-7-7-7--|
|--10-10-10-10-10-10-10-7-7-7-7-7-7-7--|
|---8--8--8--8--8--8--8-5-5-5-5-5-5-5--|

  la añoranza tuya en esta cancion
|--------------------------------------|
|--------------------------------------|
|---9--9--9--9--9--9--9-6-6-6-6-6-6-6--|  
|--10-10-10-10-10-10-10-7-7-7-7-7-7-7--|
|--10-10-10-10-10-10-10-7-7-7-7-7-7-7--|
|---8--8--8--8--8--8--8-5-5-5-5-5-5-5--|

  Fue tanto tiempo oh no
|-------------------------|  
|-------------------------|  
|--9---9---9---6---6---6--|  
|-10--10--10---7---7---7--|  
|-10--10--10---7---7---7--|  
|--8---8---8---5---5---5--| 

 	desperdiciado
|-------------------------|  
|-------------------------|  
|--9---9---9---6---6---6--|  
|-10--10--10---7---7---7--|  
|-10--10--10---7---7---7--|  
|--8---8---8---5---5---5--|

     tantos reproches
|-------------------------|  
|-------------------------|  
|--9---9---9---6---6---6--|  
|-10--10--10---7---7---7--|  
|-10--10--10---7---7---7--|  
|--8---8---8---5---5---5--|

      tanto arrebato
|-------------------------|  
|-------------------------|  
|--9---9---9---6---6---6--|  
|-10--10--10---7---7---7--|  
|-10--10--10---7---7---7--|  
|--8---8---8---5---5---5--|

	      Y esta noche, tan solo esta noche
|---------------------------------------------------------------|
|---------------------------------------------------------------|
|--2-2-2-2-2-2-2-2-2-2-2-2-2-2-2-4-4-4-4-4-4-4-4-4-4-4-4-4-4-4--|
|--3-3-3-3-3-3-3-3-3-3-3-3-3-3-3-5-5-5-5-5-5-5-5-5-5-5-5-5-5-5--|
|--3-3-3-3-3-3-3-3-3-3-3-3-3-3-3-5-5-5-5-5-5-5-5-5-5-5-5-5-5-5--|
|--1-1-1-1-1-1-1-1-1-1-1-1-1-1-1-3-3-3-3-3-3-3-3-3-3-3-3-3-3-3--|

    Esta noche.....          yo quisiera hoy brindar por ti....
|---------------------------------------------------------------|
|---------------------------------------------------------------|
|--2-2-2-2-2-2-2-2-2-2-2-2-2-2-2-4-4-4-4-4-4-4-4-4-4-4-4-4-4-4--|
|--3-3-3-3-3-3-3-3-3-3-3-3-3-3-3-5-5-5-5-5-5-5-5-5-5-5-5-5-5-5--|
|--3-3-3-3-3-3-3-3-3-3-3-3-3-3-3-5-5-5-5-5-5-5-5-5-5-5-5-5-5-5--|
|--1-1-1-1-1-1-1-1-1-1-1-1-1-1-1-3-3-3-3-3-3-3-3-3-3-3-3-3-3-3--|

	
|---------------------10-8----8-------------------------10-8----8-12-|
|--8-10-10-8-10-8-10-------10---10---8-10-10-8-10-8-10-------10------|
|--------------------------------------------------------------------|
|--------------------------------------------------------------------|
|--------------------------------------------------------------------|
|--------------------------------------------------------------------|

|--8--5-------------------------------------------|
|--------8--5-------------------------------------|
|--------------7--5--7--7b-5-7-5-----------5-7b---|
|--------------------------------7-5---5-7--------|
|------------------------------------7------------|
|-------------------------------------------------|

|--8--5-------------------------------------------|
|--------8--5-------------------------------------|
|--------------7--5--7--7b-5-7-5-----------5-7-5--|
|--------------------------------7-5---5-7--------|
|------------------------------------7------------|
|-------------------------------------------------|

|--------------------------------------|
|-----1--------3--------1--------3-----|
|---2---2----4---4----2---2----4---4---|
|-3--------5--------3--------5---------|
|--------------------------------------|
|--------------------------------------|


|----------------------------------------|
|-----1--------3--------1--------3-----5-|
|---2---2----4---4----2---2----4---4---5-|
|-3--------5--------3--------5---------5-|
|--------------------------------------3-|
|----------------------------------------|
Suggest correction
What's this?
You can suggest a correction to this tab. Community and Mods will review your correction and vote to approve or reject it.
comments
We did not receive enough feedback on this tab! Please rate:
print report bad tab
1 2 3 4 5
guest
You may want to rate the tab now too:
select rating
Please do not post tabs as comments. Select "correction" instead!