Oops, an error
Loading. Please wait.

13 Steps To Nowhere Bass Tab

version 1
version 1

Whole song

Interactive

2,538 views 6 this week
1 commentread comment
1 2 3 4 5
accurate
x 4
add to favorites
launch autoscroll
font size
0
reset
guitar tuner
Autoscroll
slow
fast
+/-
esc
set tempo
stop
Help us to improve Ultimate-Guitar.com Take our survey!
×
Author
Band- Pantera
Song- 13 Steps To Nowhere

Tuning: Standard (B E A D G)

the real tuning is (low to high)
G#
C#
F#
B
E

and you need to tune every string also!

\ slide down


intro x4
G|------------------------------------||
D|------------------------------------||
A|--------8------(8)\\----------------||
E|--------6------(6)\\----------------||
B|-5------------------------5----(5)\-||

intro 2 

G|---------------------------||
D|---------------------5---5-||
A|---------5---7-5-6-7---7---||
E|---5-6-7---7---------------||
B|---------------------------||

verse x4

G|-------------------------------------------------------||
D|-------------------------------------------------------||
A|----------------------------------5--------------------||
E|----------6---(6)\-----------6--7---6--5-----------6\\-||
B|--5-----------------------5--------------8--5----------||

chorus 

G|------------------------------------------------------||
D|------------------------------------------------------||
A|------------------------------------------------------||
E|------------------------------------------------------||
B|-4--4----4--4----4--4----4--4----4--4----4--4----4--4-||

Just so you know, like the next 5 parts is the bridge, the bridge is
long as hell

Bridge

G|------------------------------------------------------------------||
D|------------------------------------------------------------------||
A|------------------5-----------------------------------------------||
E|--4-----------------------------4-5-6\---4-5-6\---4-5-6\---4-4-6\-||
B|----------6-------------7-----6--------6--------6--------6--------||

Bridge continued

G|-------------------------------------------------------------------||
D|-------------------------------------------------------------------||
A|----------------------------------------------------------5--------||
E|----4-5-6\---4-5-6\---4-5-6\---4-4-6\-----4----------------------7-||
B|--6--------6--------6--------6---------------------6---------------||

Bridge continued

G|--------------------------------------||
D|--------------------------------------||
A|--------------------------------------|| x2
E|----4-5-6\---4-5-6\---4-5-6\---4-4-6\-||
B|--6--------6--------6--------6--------||

bridge continued

G|----------------------------||
D|----------------6---------4-||
A|----------------4---------2-||
E|--4-------------------------||
B|---------6------------------||

bridge continued

G|--------------------------------------||
D|--------------------------------------||
A|--------------------------------------|| x2
E|----4-5-6\---4-5-6\---4-5-6\---4-4-6\-||
B|--6--------6--------6--------6--------||

bridge continued

G|-------------------------||
D|-------------------------||
A|-----------------5-------||
E|---4-------------------7-||
B|----------6--------------||

bridge continued

G|--------------------------------------||
D|--------------------------------------||
A|--------------------------------------|| x2
E|----4-5-6\---4-5-6\---4-5-6\---4-4-6\-||
B|--6--------6--------6--------6--------||

bridge/interlude x11

G|----------------------------------||
D|----------------------------------||
A|----------5-----------------------||
E|--4-----------7-----4-------------||
B|------6-----------------6---3---0-||

the last part of the bridge/interlude is this,play this on the 12th time

G|----------------||
D|----------------||
A|----------------||
E|--4-------------||
B|-------6-----3--||

play this right after bridge/interlude

G|----------------------------------------------------------------||
D|--12-14-14-14-14-14-14-14-14-14\--------------------------------||
A|----------------------------------------------------------------||
E|----------------------------------------------------------------||
B|----------------------------------------------------------------||

outro

G|----------------------------------||
D|----------------------------------||
A|----------5-7-7-7-7-7-5-7-7-7-7-7-||
E|-------6\-------------------------||
B|---5-5----------------------------||

outro part 2
G|-----------------------------------------||
D|-----------------------------------------||
A|----------12-14-14-12-14-14-12-14-14-14\-||
E|-------6\--------------------------------||
B|--5--5-----------------------------------||

outro
outro part 2

chorus

G|----------------------------------------------------||
D|----------------------------------------------------||
A|----------------------------------------------------||
E|----------------------------------------------------||
B|--4--4----4--4----4--4----4--4----4--4----4--4----4-||
Suggest correction
What's this?
You can suggest a correction to this tab. Community and Mods will review your correction and vote to approve or reject it.
comments
print report bad tab
1 comment total.
0 reply
juako.071 69 wrote on January 30 2014, 08:15 pm

everything okay, but tuning is A-D-G-C-F

guest
You may want to rate the tab now too:
select rating
Please do not post tabs as comments. Select "correction" instead!