Oops, an error
Loading. Please wait.

5 Minutes Alone Bass Tab

version 3
version 3

Whole song

  • The old bass tabs of this song were incorrect or j... Show more
37 views 1 this week
no commentswrite comment
1 2 3 4 5
3 more votes to show rating
add to favorites
launch autoscroll
font size
0
reset
guitar tuner
Autoscroll
slow
fast
+/-
esc
set tempo
stop
Help us to improve Ultimate-Guitar.com Take our survey!
×
About this tab version
The old bass tabs of this song were incorrect or just missing parts in several places, this is the most correct version available. Was this info helpful? Yes No
Pantera: 5 Minutes Alone                Tuning: Between D + C# Standard

Drum Intro

Intro
|-------------------------|------------------------|
|-------------------------|------------------------|
|-------------------------|------------------------|
|-3h5-0---3h5-0-----x-x---|-3h5-0---6-3-0---x-x-x--|

|-------------------------|------------------------|
|-------------------------|------------------------|
|-------------------------|------------------------|
|-3h5-0---3h5-0-----x-x---|-3h5-0---6-3-0--x--x-x--|

Main Riff
|-------------------------|------------------------|
|-------------------------|------------------------|
|-------------------------|------------------------|
|-3h5-0---3h5-0---x-x-x---|-3h5-0---6-3-0---x-x-x--|

|-------------------------|------------------------|
|-------------------------|------------------------|
|-------------------------|------------------------|
|-3h5-0---3h5-0---x-x-x---|-3h5-0---6-3-0--x--x-x--|

Pre-Verse
|----------------------------------|
|------9---------------------------|
|-/9~----9-8-7-5---5-0---4-----2---|
|----------------7-----3---3\1---1-|

Verse
|------------------------|
|------------------------|
|------------------------|
|-0--0--0--0--0-0--0-0-0-|

|-----------------------|
|--------5----------7b--|
|----/7-----6~----------| 3x
|-0-------------4b------|  

|-----------------------|
|--------5--------------|
|----/7-----6~----------| 
|-0-------------4b------|  

|--------------------------------------------------------------|
|--------------------------------------------------------------|
|--------------------------------------------------------------|
|-0--0--0--0--0-0--0-0-0---0--0--0--0--0-0--0-0-0-7~---2~--1~--|

|-------------------------------------|
|-------------------------------------|
|-------------------------------------|
|-3h5-0---3h5-0---x-x-x--7~---6~--1~--|

|-------------------------------------|
|-------------------------------------|
|-------------------------------------|
|-3h5-0---3h5-0---x-x-x--7~---6~--5~--|

|-------------------------------------|
|-------------------------------------|
|-------------------------------------|
|-3h5-0---3h5-0---x-x-x--7~---2~--1~--|

Main Riff
|-------------------------|------------------------|
|-------------------------|------------------------|
|-------------------------|------------------------|
|-3h5-0---3h5-0---x-x-x---|-3h5-0---6-3-0---x-x-x--|

|-------------------------|------------------------|
|-------------------------|------------------------|
|-------------------------|------------------------|2x
|-3h5-0---3h5-0---x-x-x---|-3h5-0---6-3-0--x--x-x--|

Pre-Verse
|----------------------------------|
|------9---------------------------|
|-/9~----9-8-7-5---5-0---4-----2---|
|----------------7-----3---3\1---1-|

Verse
|------------------------|
|------------------------|
|------------------------|
|-0--0--0--0--0-0--0-0-0-|

|-----------------------|
|--------5----------7b--|
|----/7-----6~----------| 3x
|-0-------------4b------|  

|-----------------------|
|--------5--------------|
|----/7-----6~----------| 
|-0-------------4b------|  

|--------------------------------------------------------------|
|--------------------------------------------------------------|
|--------------------------------------------------------------|
|-0--0--0--0--0-0--0-0-0---0--0--0--0--0-0--0-0-0-7~---2~--1~--|

|-------------------------------------|
|-------------------------------------|
|-------------------------------------|
|-3h5-0---3h5-0---x-x-x--7~---6~--1~--|

|-------------------------------------|
|-------------------------------------|
|-------------------------------------|
|-3h5-0---3h5-0---x-x-x--7~---6~--5~--|

|-------------------------------------|
|-------------------------------------|
|-------------------------------------|
|-3h5-0---3h5-0---x-x-x--7~---2~--1~--|

Main Riff
|-------------------------|------------------------|
|-------------------------|------------------------|
|-------------------------|------------------------|
|-3h5-0---3h5-0---x-x-x---|-3h5-0---6-3-0---x-x-x--|

|-------------------------|------------------------|
|-------------------------|------------------------|
|-------------------------|------------------------|2x
|-3h5-0---3h5-0---x-x-x---|-3h5-0---6-3-0--x--x-x--| 
    
Bridge                                                             
|---------------------------------|---------------------------------|
|-----9---------------------------|-----9---------------------------|
|-/9~---9-8-7-5---5---------4-----|-/9~---9-8-7-5---5-----4-----2---|2x
|---------------7---7-6-5-3---3\1-|---------------7---5\3---3\1---1-|

|---------------------------------|
|---------------------------------|
|-----5---------5-----4-----3-----|3x
|-/7~---7-6-5-4---4\3---3\2---2\1-|

|---------------------------------|
|---------------------------------|
|-----5---------5-----------------|
|-/7~---7-6-5-4---5\4-4\3-3\2-2\1-|

|------------------------|-------------------------|
|------------------------|-------------------------|
|------------------------|-------------------------|
|-3h5-0---3h5-0---x-x-x--|-3h5-0---6-3-------------|

|------------------------|------------------------------------------|
|------------------------|------------------------------------------|
|------------------------|------------------------------------------|
|-3h5-0---3h5-0---x-x-x--|-3h5-0---6-3-0--x--x-x-0~-----------------|
              
|------------------------------|-----------------------------|
|--------------------------3h5-|--------------------------3~-|
|-3br-1-3--1-----3br-1-3h5-----|-3br-1-3--1-----3br-1-3h5----|
|------------3~----------------|------------3~---------------|

|------------------------------|------------------------------|
|--------------------------6h8-|------------------------------|
|-6br-4-6--4-----6br-4-6h8-----|-6br-4-6--4-x-x-x-x-x-x-x-x-x-|
|------------6~----------------|------------------------------|

|------------------------------|-----------------------------|
|------------------------------|-----------------------------|
|--------------------------5h7-|--------------7-5------------|
|-5br-3-5--3-0~--5br-3-5h7-----|-5br-3-5--3-0-----7-6-5-3~---|

|------------------------------|-------------------------------|
|------------------------------|-------------------------------|
|--------------------------5h7-|-------------------------------|
|-5br-3-5--3-0~--5br-3-5h7-----|-5br-3-5--3-x-x-x-x-x-x-x-x-x--|

|------------------------------|------------------------------|
|--------------------------3h5-|--------------------------6h8-|
|-3br-1-3--1-----3br-1-3h5-----|-6br-4-6--4-----6br-4-6h8-----|
|------------3~----------------|------------6~----------------|

|--------------------------------|------------------------|
|---------------------------8h10-|------------------------|
|-8br-6-8--6-----8br-6-8h10------|-10br-8-10--8-----------|
|------------8~------------------|--------------10~-------|

|--------------------------------------------|
|--------------------------------------------|
|-------1--------------------1---------------|4x
|-1-------1-0-----1--1-0-------0~-1-0~-1-3~--|

|---------------------------------------------|
|---------------------------------------------|
|---------------------------------------------|
|-0~-1-0~--1-3~-0~-1-0~--1-3~-x-x-x-x-x-x-x-x-|



Main Riff
|-------------------------|------------------------|
|-------------------------|------------------------|
|-------------------------|------------------------|
|-3h5-0---3h5-0---x-x-x---|-3h5-0---6-3-0---x-x-x--|

|-------------------------|------------------------|
|-------------------------|------------------------|
|-------------------------|------------------------|2x
|-3h5-0---3h5-0---x-x-x---|-3h5-0---6-3-0--x--x-x--|

Outro:
|-----------------------------|-----------------------------|
|-----------------------------|-----------------------------|
|-----------------------------|-----------------------------|
|-3h5-0-0-0-0-3h5-0-0-0-3~-5~-|-3h5-0-0-0-0-3h5-0-0-0-6~-6~-|
                                                            
|-----------------------------|--------------------------------|
|-----------------------------|--------------------------------|
|-----------------------------|-----------------------------2b-|
|-3h5-0-0-0-0-3h5-0-0-0-3~-5~-|-1-1-1-1-1-1-1-1-1-1-1-1-1-1----|
 
|-----------------------------|-----------------------------|
|-----------------------------|-----------------------------|
|-----------------------------|-----------------------------|
|-3h5-0-0-0-0-3h5-0-0-0-3~-5~-|-3h5-0-0-0-0-3h5-0-0-0-6~-6~-|
                                                            
|-----------------------------|--------------------------------|
|-----------------------------|--------------------------------|
|-----------------------------|-----------------------------2b-|
|-3h5-0-0-0-0-3h5-0-0-0-3~-5~-|-1-1-1-1-1-1-1-1-1-1-1-1-1-1----|
                                                            
|-------------------------------|
|-------------------------------| 
|-------------------------------|8x
|-3h5-0-0-0-0-3h5-0-0-0-0-0-0-0-|

|---------------------------------------------------------------|
|---------------------------------------------------------------| Repeat +
|---------------------------------------------------------------| Fade Out
|-3h5-0-0-0-0-3h5-0-0-0-0-6-3-0-0-0-0-3h5-0-0-0-0-6-3-0~-3-5-6~-|
Suggest correction
Give kudos to tab author, rate the tab!
1 2 3 4 5
comments
print report bad tab
guest
You may want to rate the tab now too:
select rating
Wanna post a correction for this tab? Suggest correction