Oops, an error
Loading. Please wait.

A New Level Of Confidence intro tab

version 1
version 1

Intro

  • My tab has just the intro and is very easy for beg... Show more

Whole song

by Pantera
37 views 3 this week
no commentswrite comment
1 2 3 4 5
3 more votes to show rating
add to favorites
×
Save as Personal and add changes to this tab that will be seen only by you. Learn more ›
×
You can save this tab as Personal to edit and correct it or add notes. All changes will be seen only by you. Learn more »
launch autoscroll
font size
0
reset
how to read this tab
guitar tuner
edit
Autoscroll
slow
fast
+/-
esc
set tempo
stop
About this tab version
My tab has just the intro and is very easy for beginners who just want to learn 1 fun riff and not the entire song. Was this info helpful? Yes No
Artist: Pantera
Song: A new level of confidence
Part of the song: intro
Youtube video where tab is made from: https://www.youtube.com/watch?v=KJ0bG_7L3Sw
Tune everything 1/4 step down from (D,A,D,G,B,E).

[Intro] x4
e|----------------------------------------------------------------------------|
B|----------------------------------------------------------------------------|
G|----------------------------------------------------------------------------|
D|----------------------------------------------------------------------------|
A|--------------0-1-2---0-1-2-3----0-1-2-3-4---6-6-6-6------------------------|
D|--------------0-1-2---0-1-2-3----0-1-2-3-4---6-6-6-6------------------------|

Repeat 4 times with palm muting.
e|----------------------------------------------------------------------------|
B|----------------------------------------------------------------------------|
G|----------------------------------------------------------------------------|
D|----------------------------------------------------------------------------|
A|--------------0-1-2---0-1-2-3----0-1-2-3-4---6-6-6-6------------------------|
D|--------------0-1-2---0-1-2-3----0-1-2-3-4---6-6-6-6------------------------| 







Suggest correction
Creating personal tab
Creating personal tab
You can edit any tab online and save it as your Personal.

You can edit, replace or remove any tab part or add personal notes – all changes will be seen only by you.

Personal tabs can be accessed anytime from any device, even offline.
Learn more »
Give kudos to tab author, rate the tab!
1 2 3 4 5
comments
print report bad tab
guest
You may want to rate the tab now too:
select rating
Wanna post a correction for this tab? Suggest correction