Oops, an error
Loading. Please wait.

Caged In A Rage Tab

version 1
version 1

Whole song

5,577 views 6 this week
4 commentsread comments
1 2 3 4 5
x 3
add to favorites
launch autoscroll
font size
0
reset
how to read this tab
guitar tuner
Autoscroll
slow
fast
+/-
esc
set tempo
stop
Help us to improve Ultimate-Guitar.com Take our survey!
×
Author
normal tuning. throw in distortion ;) don't use any hammer-on or pull-off during the 
bass riff, all these notes should be actually played. im not quite sure about the bass riff 
it can't be clearly heard.
M is "mute-strings hit"

::riff 1a:
E|--X--X--X--X---X--X--X--X--|
B|--X--X--X--X---X--X--X--X--|
G|--X--X--X--X---X--X--X--X--|
D|--2--2--M--2---4--4--4--4--|
A|--2--2--M--2---4--4--4--4--|
E|--0--0--M--0---2--2--2--2--|

::riff 1b:
E|--X--X--X--X---X--X--X--X--|
B|--X--X--X--X---X--X--X--X--|
G|--X--X--X--X---X--X--X--X--|
D|--2--2--M--2---3--3--3--3--|
A|--2--2--M--2---3--3--3--3--|
E|--0--0--M--0---1--1--1--1--|

::riff 1c:
E|--X--X--X--X---X--X--X--X--|
B|--X--X--X--X---X--X--X--X--|
G|--X--X--X--X---X--X--X--X--|
D|--2--2--M--2---5--5--5--5--|
A|--2--2--M--2---5--5--5--5--|
E|--0--0--M--0---3--3--3--3--|

::riff 2:
E|--1-0-2-0-1-0-2-0-1-0-2-0-3-0-2-0--

::follow this pattern with some slight variations:
riff 1a
riff 1b
riff 1c
riff 2
riff 1a
riff 1b
riff 1c
riff 2

if you have any comments, feel free to email me on coenvdwel@planet.nl. i know the 
has a slighty different riff from "riff 2" but i can't really figure, too much shouting and 
around. i think its just "riff 2" but then ending with some higher notes. hope this
tabs helped you out. cheers!
Suggest correction
Give kudos to tab author, rate the tab!
1 2 3 4 5
comments
print report bad tab
4 comments total. Showing first comments.
0 reply
mattyt81 10 Jan 24, 2005 12:00 AM

The way I play it is this...

::riff 1a:
Eb|--X--X--X--X---X--X--X--X--|
Bb|--X--X--X--X---X--X--X--X--|
F#|--X--X--X--X---4--4--4--4--|
C#|--2--2--M--2---4--4--4--4--|
G#|--2--2--M--2---2--2--2--2--|
E#|--0--0--M--0---------------|

::riff 1b:
Eb|--X--X--X--X---X--X--X--X--|
Bb|--X--X--X--X---X--X--X--X--|
F#|--X--X--X--X---X--X--X--X--|
C#|--2--2--M--2---3--3--3--3--|
G#|--2--2--M--2---3--3--3--3--|
Eb|--0--0--M--0---1--1--1--1--|

::riff 1c:
Eb|--X--X--X--X---X--X--X--X--|
Bb|--X--X--X--X---X--X--X--X--|
F#|--X--X--X--X---X--X--X--X--|
C#|--2--2--M--2---5--5--5--5--|
G#|--2--2--M--2---5--5--5--5--|
Eb|--0--0--M--0---3--3--3--3--|

0 reply
mattyt81 10 Jan 24, 2005 12:00 AM

The way I play it is this...

::riff 1a:
Eb|--X--X--X--X---X--X--X--X--|
Bb|--X--X--X--X---X--X--X--X--|
F#|--X--X--X--X---4--4--4--4--|
C#|--2--2--M--2---4--4--4--4--|
G#|--2--2--M--2---2--2--2--2--|
Eb|--0--0--M--0---------------|

::riff 1b:
Eb|--X--X--X--X---X--X--X--X--|
Bb|--X--X--X--X---X--X--X--X--|
F#|--X--X--X--X---X--X--X--X--|
C#|--2--2--M--2---3--3--3--3--|
G#|--2--2--M--2---3--3--3--3--|
Eb|--0--0--M--0---1--1--1--1--|

::riff 1c:
Eb|--X--X--X--X---X--X--X--X--|
Bb|--X--X--X--X---X--X--X--X--|
F#|--X--X--X--X---X--X--X--X--|
C#|--2--2--M--2---5--5--5--5--|
G#|--2--2--M--2---5--5--5--5--|
Eb|--0--0--M--0---3--3--3--3--|

-1 reply
Eternal_Slayer 10 Dec 25, 2006 03:13 AM

isnt this a damage plan song...............

guest
You may want to rate the tab now too:
select rating
Wanna post a correction for this tab? Suggest correction