Oops, an error
Loading. Please wait.

Caged In A Rage Tab

version 2
version 2

Whole song

1,952 views 3 this week
1 commentread comment
1 2 3 4 5
please rate
add to favorites
launch autoscroll
font size
0
reset
how to read this tab
guitar tuner
Tab Pro tools
  • play this tab
  • loop segment
  • change instrument
  • show fretboard
  • metronome
×
Best way to learn
"Caged In A Rage"
Autoscroll
slow
fast
+/-
esc
set tempo
stop
Contributor
----------------------------------------------------------------------------
Caged In A Rage
----------------------------------------------------------------------------
Tabbed by:5_minutes_alone
Email:thetrendisdead@hotmail

got kind of annoyed that there were no good/complete tabs for this amazing song as
I am a massive Dimebag fan. Hope it's ok.
* no timing, just notes. never been sure how to note timing on these tabs...

Tuning:drop all strings down 1/4 of a step.

intro:

  *1st time only*
e|-x---x---x---x----------------------------------------------------|
B|-x---x---x---x----------------------------------------------------|
G|-x---x---x---x------------4--4----------3-3----------5--5---------|
D|-x---x---x---x---2-x-x-2--4--4-2-x-x-2--3-3-2-x-x-2--5--5---------|
A|-x---x---x---x---2-x-x-2--2--2-2-x-x-2--1-1-2-x-x-2--3--3---------|
E|-x---x---x---x---0-x-x-0-------0-x-x-0------0-x-x-0---------------|


   *palm mute all*   ( x2 first time only, only once 2nd time )    x2
e|-----------------|
B|-----------------|
G|-----------------|
D|-----------------|
A|-----------------|
E|-2-0-3-0-5-3-2-0-|

then:

e|-------------|
B|-------------|
G|-------------|
D|-------------|
A|-------------|
E|-2-0-3-/14\--|

e|-----------------|
B|-----------------|
G|-----------------|
D|-----------------|    < x7
A|-----------------|
E|-2-0-3-0-5-3-2-0-|


  *palm mute all*
e|-----------------|
B|-----------------|
G|-----------------|
D|-----------------|
A|---------1-2-3-4-|
E|-2-3-4-5---------|

*palm mute all*
e|-----------------|
B|-----------------|
G|-----------------|
D|-----------------|   < x6
A|-----------------|
E|-2-0-3-0-5-3-2-0-|

e|-----------------|  ( slowly ease off palm mute )
B|-----------------|
G|-----------------|
D|-----------------|
A|-4---------------|
E|---0-3-0-5-3-2-0-|


    -4.5 steps, then up 0.5 of a step
e|-----------------------------------------------------|
B|---------------------H4------------------------------|
G|---------------------H4------------------------------|
D|-----------------------------------------------------|
A|---------1-2-3-4-------------------------------------|
E|-2-3-4-5----------------------------0----------------|
                                dump whammy bar(i think wah is used on this one note)

Verse:

e|---------------------------------------------|
B|---------------------------------------------|
G|----------4--4----------3--3----------5--5---|
D|-2-x-x-2--4--4-2-x-x-2--3--3-2-x-x-2--5--5---|
A|-2-x-x-2--2--2-2-x-x-2--1--1-2-x-x-2--3--3---|
E|-0-x-x-0-------0-x-x-0-------0-x-x-0---------|


    *pm*
e|------------------|
B|------------------|
G|------------------|
D|------------------| < x2
A|------------------|
E|-2-0-3-0-5-3-2-0--|

e|---------------------------------------------|
B|---------------------------------------------|
G|----------4--4----------3--3----------5--5---|
D|-2-x-x-2--4--4-2-x-x-2--3--3-2-x-x-2--5--5---|
A|-2-x-x-2--2--2-2-x-x-2--1--1-2-x-x-2--3--3---|
E|-0-x-x-0-------0-x-x-0-------0-x-x-0---------|


     *pm*
e|------------------|
B|------------------|
G|------------------|
D|------------------|
A|------------------|
E|-2-0-3-0-5-3-2-0--|

e|------------------|
B|------------------|
G|------------------|
D|------------------|
A|------------------|
E|-2-0-3-/17~\------|


      *pm*
e|------------------|
B|------------------|
G|------------------|
D|------------------| < x3
A|------------------|
E|-2-0-3-0-5-3-2-0--|


       *pm*
e|-----------------|
B|-----------------|
G|-----------------|
D|-----------------|
A|---------1-2-3-4-|
E|-2-3-4-5---------|

e|---------------------------------------------|
B|---------------------------------------------|
G|----------4--4----------3--3----------5--5---|
D|-2-x-x-2--4--4-2-x-x-2--3--3-2-x-x-2--5--5---|
A|-2-x-x-2--2--2-2-x-x-2--1--1-2-x-x-2--3--3---|
E|-0-x-x-0-------0-x-x-0-------0-x-x-0---------|

      *pm*
e|------------------|
B|------------------|
G|------------------|
D|------------------| < x2
A|------------------|
E|-2-0-3-0-5-3-2-0--|


e|---------------------------------------------|
B|---------------------------------------------|
G|----------4--4----------3--3----------5--5---|
D|-2-x-x-2--4--4-2-x-x-2--3--3-2-x-x-2--5--5---|
A|-2-x-x-2--2--2-2-x-x-2--1--1-2-x-x-2--3--3---|
E|-0-x-x-0-------0-x-x-0-------0-x-x-0---------|

    *pm*
e|------------------|
B|------------------|
G|------------------|
D|------------------| < x2
A|------------------|
E|-2-0-3-0-5-3-2-0--|


Chorus:


e|-----------------------------------------------------------------------| x2
B|-----------------------------------------------------------------------|
G|-----------------------------------------------------------------------|
D|-2-x-x-5-/-7-\-5------5------2-----5---7---5------ph5~-----------------|
A|-2-x-x-5-/-7-\-5--4h5---4~---2-----5---7---5--4h5----------------------|
E|-0-x-x-3-/-5-\-3-------------0-x-x-3-/-5-\-3---------------------------|

      *pm*
e|------------------|
B|------------------|
G|------------------|
D|------------------| < x3
A|------------------|
E|-2-0-3-0-5-3-2-0--|


       *pm*
e|-----------------|
B|-----------------|
G|-----------------|
D|-----------------|
A|---------1-2-3-4-|
E|-2-3-4-5---------|

verse 2:

e|---------------------------------------------|
B|---------------------------------------------|
G|----------4--4----------3--3----------5--5---|
D|-2-x-x-2--4--4-2-x-x-2--3--3-2-x-x-2--5--5---|
A|-2-x-x-2--2--2-2-x-x-2--1--1-2-x-x-2--3--3---|
E|-0-x-x-0-------0-x-x-0-------0-x-x-0---------|


    *pm*
e|------------------|
B|------------------|
G|------------------|
D|------------------| < x2
A|------------------|
E|-2-0-3-0-5-3-2-0--|

e|---------------------------------------------|
B|---------------------------------------------|
G|----------4--4----------3--3----------5--5---|
D|-2-x-x-2--4--4-2-x-x-2--3--3-2-x-x-2--5--5---|
A|-2-x-x-2--2--2-2-x-x-2--1--1-2-x-x-2--3--3---|
E|-0-x-x-0-------0-x-x-0-------0-x-x-0---------|


     *pm*
e|------------------|
B|------------------|
G|------------------|
D|------------------| < x2
A|------------------|
E|-2-0-3-0-5-3-2-0--|

  Breakdown:


e|------------------|
B|------------------|
G|------------------|
D|-2----------------|
A|-2-let-ring-------|
E|-0----------------|
 |
 |
 |w/ wah           
e|----------------------------------|
B|----------------------H4----------|
G|----------------------------------|
D|-2-fbk-~~-------------------------|
A|----------------------------------|
E|----------------------------------|

e|------------------------------|
B|------------------------------|
G|------------------------------|
D|------------------------------|
A|-7-7--7-7--7-7--7-7--7-7-7-7--|
E|-0-0--0-0--0-0--0-0--0-0-0-0--|

Chorus:


e|-----------------------------------------------------------------------| x3
B|-----------------------------------------------------------------------|
G|-----------------------------------------------------------------------|
D|-2-x-x-5-/-7-\-5------5------2-----5---7---5------ph5~-----------------|
A|-2-x-x-5-/-7-\-5--4h5---4~---2-----5---7---5--4h5----------------------|
E|-0-x-x-3-/-5-\-3-------------0-x-x-3-/-5-\-3---------------------------|

e|--------------------------------------------------------------------|
B|--------------------------------------------------------------------|
G|--------------------------------------------------------------------|
D|-2-x-x-5-/-7-\-5------5------2-----5---7---5------------------------|
A|-2-x-x-5-/-7-\-5--4h5---4~---2-----5---7---5------------------------|
E|-0-x-x-3-/-5-\-3-------------0-x-x-3-/-5-\-3---3--------------------|
                                               dump whammy bar

   Pre-Solo:


e|--------------------------------------------------------|
B|--------------------------------------------------------| x4
G|--------------------------------------------------------|
D|---------------------6------------------------6---7-----|
A|-------6----------4h5--5--------6-----------5---6-------|
E|-2-/-4---4-x-x-4-----------2-/-4---4-x-x-4--------------|

   (this continues under the beggining of the solo which comes in at the beginning of 
3rd time round)

After 4th time:


e|---------------------------------|
B|---------------------------------|  x4
G|---------------------------------|
D|---------------------------------|
A|----------2-4/5~-----------------|
E|-0--0-2/3------------------------|

e|------------------------------------------------------|
B|------------------------------------------------------|
G|------------------------------------------------------| end solo
D|-2----------------------------------------------------|
A|-2--let-ring------------7-7--7-7--7-7--7-7--7-7-7-7---|
E|-0----------------------0-0--0-0--0-0--0-0--0-0-0-0---|

Solo:

   w/wah
e|--------------------------------------------------------------------14b16|
B|----------------------14b16-14b16b14-12~--------------------14b16-12-----|
G|-11-12-13~----11-12-13------------------11-12-13~--11-12-13--------------|
D|-------------------------------------------------------------------------|
A|-------------------------------------------------------------------------|
E|-------------------------------------------------------------------------|


e|--17b19~---15h17p15----15-15~---15--12h15p12----12-----------------|
B|--------------------17-----------------------15----15-12h15h12-----|
G|-------------------------------------------------------------------|
D|-------------------------------------------------------------------|
A|-------------------------------------------------------------------|
E|-------------------------------------------------------------------|


e|-------------------------------------------------------------------|
B|----12-----------------------------------15--------15--------------|
G|-15----15-14-12h14p12----12h14b16--14b16----14b16-----14b16~-------|
D|----------------------14-------------------------------------------|
A|-------------------------------------------------------------------|
E|-------------------------------------------------------------------|

                                     w/ reverb
e|-----------------------------------15b17b15-12h15h12-10h12p10-9h10p9-|
B|---------------------------------------------------------------------|
G|------12-12-----12-12-----14b16~-------------------------------------|
D|-/14---------14-------14---------------------------------------------|
A|---------------------------------------------------------------------|
E|---------------------------------------------------------------------|


e|-7h9p7-5h7p5-3h5p3-2h3p2-3b5pn3~-------|
B|---------------------------------------| 
                                        
comments
We did not receive enough feedback on this tab! Please rate:
print report bad tab
1 2 3 4 5
1 comment total.
0 reply
Fryderyczek wrote on January 6 2015, 06:34 am

You sir, are a God. Thanks very much

I want to post or [tab]
guest
You may want to rate the tab now too:
select rating
Please do not post tabs as comments. Select "correction" instead!