Oops, an error
Loading. Please wait.

Cemetery Gates Tab

version 1
version 1
111,617 views 126 this week
23 commentsread comments
1 2 3 4 5
x 30
add to favorites
launch autoscroll
font size
0
reset
how to read this tab
guitar tuner
Autoscroll
slow
fast
+/-
esc
set tempo
stop
Help us to improve Ultimate-Guitar.com Take our survey!
×
Author
Pantera Cemetery Gates solo, yeah baby!
No solo? No problem!

e|------------------------|----------5-----5--4~-|-----------9-----9~---|
B|--2h---3h-5--5r---3--2--|-------------2--------|----------------------|
G|------------------------|----------------------|--------9-----9-------|
D|------------------------|----------------------|----------------------|
A|------------------------|----------------------|----------------------|
E|------------------------|----------------------|----------------------|

e|-------------------|--12-----10~-------10h-9--|------9----------------|
B|--------------9----|------9-------------------|--12-----10~-----------|
G|-------------------|--------------------------|-----------------------|
D|-------------------|--------------------------|-----------------------|
A|-------------------|--------------------------|-----------------------|
E|-------------------|--------------------------|-----------------------|

e|--------------------------------------|----------------------------|
B|--10----9-----------------------------|------------12------12------|
G|-------------12----11----10----9h-10--|--11~-----------11------11~-|
D|--------------------------------------|----------------------------|
A|--------------------------------------|----------------------------|
E|--------------------------------------|----------------------------|

e|------------------------|-------------------|
B|------12----------------|-------------------|
G|----------11b-------12r-|------9~-----------|
D|------------------------|-------------------|
A|------------------------|-------------------|
E|------------------------|-------------------|

Are you ready???
Ok you asked for it....

e|-----------------9h10h12h10h9----9-14---12h10h|
B|------9--9h10h12--------------12--------------|
G|----------------------------------------------|
D|----------------------------------------------|
A|----------------------------------------------|
E|----------------------------------------------|

e|--14h10-16---14h12h14h12-17h-16h14h16h14-21---17----17-|
B|-------------------------------------------------19----|
G|-------------------------------------------------------|
D|-------------------------------------------------------|
A|-------------------------------------------------------|
E|-------------------------------------------------------|

e|----------------------------|
B|--------19-16--16-----------|
G|--19~-------------17~-------|
D|----------------------------|
A|----------------------------|
E|----------------------------|

e|--------------------------------------------------|
B|--------------------------------------------------|
G|--------------------------------------------------|
D|--------------------------------------13-14-15-16-|
A|--------------11-12-13-14-13-14-15-16-------------|
E|--11-12-13-14-------------------------------------|

e|----------------------------|---------14--------------14--------------14-|
B|--14------14------14~-------|------14----17h14-----14----17h14-----14----|
G|--14------14------14~-------|--16b-------------16b-------------16b-------|
D|------16------16------------|--------------------------------------------|
A|----------------------------|--------------------------------------------|
E|----------------------------|--------------------------------------------|

e|---------------14-----------14-----14-----|
B|--17h14-----14----17h14-17b----17b----17b-|
G|--------16b-------------------------------|
D|------------------------------------------|
A|------------------------------------------|
E|------------------------------------------|

e|--21-14-16-21-14-16-21-14-20-20-14-20-20-14-20-14-|
B|--------------------------------------------------|
G|--------------------------------------------------|
D|--------------------------------------------------|
A|--------------------------------------------------|
E|--------------------------------------------------|

e|--19h20h19h17-----19h20h19h17--------------------14-16-|
B|--------------19--------------19-19-19-19~----17-------|
G|-------------------------------------------------------|
D|-------------------------------------------------------|
A|-------------------------------------------------------|
E|-------------------------------------------------------|

e|--17-16-14----14-19--17h14----14h17h14h17h14-14-14-14-------------------|
B|-----------17--------------17-------------------------17h14h17h14----14-|
G|------------------------------------------------------------------17----|
D|------------------------------------------------------------------------|
A|------------------------------------------------------------------------|
E|------------------------------------------------------------------------|

e|-----------------------------------------------------|
B|--15h14h15h14----14----------------------------------|
G|--------------17----17h16h14-16h14----14-------------|
D|-----------------------------------16----16~-----16--|
A|-----------------------------------------------------|
E|-----------------------------------------------------|

e|----------------------------------------|-------------------------------|
B|----------------------------------------|-------------------------------|
G|--14h16h14--13h14h13--11h13h11--9h11h9--|--7h9h7--6h7h6--7----6----6---6|
D|----------------------------------------|-------------------------------|
A|----------------------------------------|-------------------------------|
E|----------------------------------------|-------------------------------|

Questions?  Comments?  Wanna talk about Power Rangers?  AIM me at Sloofus,
or email me at Sloofus@yahoo.com


************************************

| ~  Vibrato
| h  Hammer-on
| r  Release
| b  Bend

************************************
Suggest correction
comments
print report bad tab
23 comments total. Showing first comments. show 1 bad comment
+2 reply
metal4all 50 Feb 22, 2006 04:13 PM

way too ****ing fast.

+1 reply
c0ld_3mphasis05 30 Oct 09, 2006 05:44 PM

I think its wrong.

guest
You may want to rate the tab now too:
select rating
Wanna post a correction for this tab? Suggest correction