Oops, an error
Loading. Please wait.

Cemetery Gates Bass

version 3
version 3
by Pantera
35,232 views 39 this week
2 commentsread comments
1 2 3 4 5
x 16
add to favorites
launch autoscroll
font size
0
reset
guitar tuner
backing track
0:00
0:00
×
Best way to learn
"Cemetery Gates"
Autoscroll
slow
fast
+/-
esc
set tempo
stop
Author
Difficulty
intermediate
[Intro]
this varies a little, but it mainly goes like this:
                                  (x5) Final Time (6th Time)
G|---------------------------------|-------------------|
D|---------------------------------|-------------------|
A|-------0----------5-4--2---------|-------0---------5-|
E|--2---------0------------5--0----|--2---------0------|

(Rest while guitars start the squealing,then play this along with guitar:)                   
G|--------------------|
D|--------2--------2--|
A|--2--4------2--4----|
E|--------------------|

(Play intro riff like this before heavy part)                                                        
G|--------------------------------------------------------|
D|--------------------------------------------------------|
A|-------0----------5-4--2------------0---------5~~~~~~~--|
E|--2---------0------------5--0--2---------0--------------|

(Heavy Part:)
                                                           (x2)
G|----------------------------------------------------------|
D|------------------------3---------------------------------|
A|--------------------------------------7-6-7-8--6-7---6----|
E|--5-5-5-5-5-5--0-1-1--1---1/5-5-5-5-5--------------8---7--|

G|---------------------------------------------------------------------------------|
D|------------------------3--------------------------------------------------------|
A|--------------------------------------7-6-7-8--6-7-------------------------------|
E|--5-5-5-5-5-5--0-1-1--1---1/5-5-5-5-5--------------8\0--1--2--2-2-5--5-5-7--7-7-8|

                            (x3)
G|----------------------------|
D|----------------------------|
A|----------------------------|
E|0--1--2--2-2-5--5-5-7--7-7-8|

G|------------|
D|------------|
A|------------|
E|0--1--2~~~~~|

"Reverend"....
                                  (x3)                  
G|---------------------------------|-------------------|
D|---------------------------------|-------------------|
A|-------0----------5-4--2---------|-------0---------5-|
E|--2---------0------------5--0----|--2---------0------|

"Well I Guess You Took My Youth"....
                             (x4)
G|----------------------------|
D|--------2-------------------|
A|---2/4-----0--2/4-----5--4--|
E|-------------------2--------|

(Play Heavy Part Again:)                                                          
G|----------------------------------------------------------|
D|------------------------3---------------------------------|
A|--------------------------------------7-6-7-8--6-7---6----|
E|--5-5-5-5-5-5--0-1-1--1---1/5-5-5-5-5--------------8---7--|

G|---------------------------------------------------------------------------------|
D|------------------------3--------------------------------------------------------|
A|--------------------------------------7-6-7-8--6-7-------------------------------|
E|--5-5-5-5-5-5--0-1-1--1---1/5-5-5-5-5--------------8\0--1--2--2-2-5--5-5-7--7-7-8|

                             (x3)
G|----------------------------|
D|----------------------------|
A|----------------------------|
E|0--1--2--2-2-5--5-5-7--7-7-8]

G|------------|
D|------------|
A|------------|
E|0--1--2~~~~~]

(Back to the slow part:)
                                  (x3)                  
G|---------------------------------|-------------------|
D|---------------------------------|-------------------|
A|-------0----------5-4--2---------|-------0---------5-|
E|--2---------0------------5--0----|--2---------0------|

"Through all those complex years".....
                                (x3)        Final Time (Forth x)
G|-------------------------------|--------------------------|
D|----------2--------------------|----------2---------------|
A|-----2/4-----0---2/4-----5--4--|-----2/4-----0---2/4------|
E|--2-------------------2--------|--2--------------------2--|

(Outro before heavy part:)
G|-----------------|
D|-----------------|
A|--5-5-5-4-2------|
E|------------5-5--|

                                                           (x3)
G|----------------------------------------------------------|
D|------------------------3---------------------------------|
A|--------------------------------------7-6-7-8--6-7---6----|
E|--5-5-5-5-5-5--0-1-1--1---1/5-5-5-5-5--------------8---7--|

G|-----------------------------------------------|
D|------------------------3----------------------|
A|--------------------------------------7-6-7-8--|
E|--5-5-5-5-5-5--0-1-1--1---1/5-5-5-5-5----------|

(Play this three times before the heavy part once again)
                                  (x3)
G|---------------------------------|
D|---------------------------------|
A|-------0----------5-4--2---------|
E|--2---------0------------5--0----|


(After about the third time the rhythm changes, but its basically the same as this)
                             (x8)
G|----------------------------|
D|----------------------------|
A|----------------------------|
E|0--1--2--2-2-5--5-5-7--7-7-8|

(Then play this to the end)
G|---------------------------------------------------------------------------------|
D|------------------------3--------------------------------------------------------|
A|--------------------------------------7-6-7-8--6-7-------------------------------|
E|--5-5-5-5-5-5--0-1-1--1---1/5-5-5-5-5--------------8\0--1--2--2-2-5--5-5-7--7-7-8|


************************************

| ~  Vibrato
| /  Slide up
| \  Slide down

************************************
Suggest correction
comments
print report bad tab
2 comments total.
+3 reply
n0m0ret3ars 10 Sep 01, 2008 09:27 AM

Hey man, nice but you skipped the cool stuff from the intro. I believe it goes something like this:
|-----------------------------------|
|-----------------------------------|
|---0----0-2-2h4p2~--5-4-2----------|
|-2---0--------------------5~--4~--0|
Then Repeat

+3 reply
jk41 732 Mar 15, 2011 12:20 AM

no, its
A----------------------------5-4---
E-2--0-2-5---4-5-7-0---5-4-0------0
thats from guitar world quite a few years ago

guest
You may want to rate the tab now too:
select rating
Wanna post a correction for this tab? Suggest correction