Oops, an error
Loading. Please wait.

Cemetery Gates Tab

version 3
version 3
613,070 views 1,557 this week
84 commentsread comments
1 2 3 4 5
excellent!
x 193
add to favorites
launch autoscroll
font size
0
reset
how to read this tab
guitar tuner
Autoscroll
slow
fast
+/-
esc
set tempo
stop
Help us to improve Ultimate-Guitar.com Take our survey!
×
Author
                         Cemetery gates-Pantera
                            Tabbed by mitch


This tab was a bit hard to make because of the sound effects the guitars use during
some parts of this ass kicking shit. I might of messed up a little but it all sounds
good to me. And feel free to give me some feed back.
--------Ray7788@hotmail.com---------


e|------------------|-----------------|----------------|------0-----------|
B|----------2-------|------0--0-------|------0--0------|----2-----2-------|
G|--------2---2-----|----4------4-----|----4------4----|--4---------4-----|
D|------2-----------|--2--------------|--2----------0--|------------------|
A|----4----------0--|-----------------|----------------|------------------|
E|--2---------------|--------------0--|----------------|------------------|

e|------------------|-----------------|----------------|---------0--------|
B|----------2-------|------0--0-------|------0--0------|--2--------2------|
G|--------2---2-----|----4------4-----|----4------4----|----4--------4----|
D|------2-----------|--2--------------|--2----------0--|------0--------0--|
A|----4----------0--|-----------------|----------------|------------------|
E|--2---------------|--------------0--|----------------|------------------|

   "Reverend           Reverend          is this some conspiricy..."
e|------------------|-----------------|----------------|------0-----------|
B|----------2-------|------0--0-------|------0--0------|----2-----2-------|
G|--------2---2-----|----4------4-----|----4------4----|--4---------4-----|
D|------2-----------|--2--------------|--2----------0--|------------------|
A|----4----------0--|-----------------|----------------|------------------|
E|--2---------------|--------------0--|----------------|------------------|

   "Crucified    for   no  sins               An image, beneath me..."
e|------------------|-----------------|----------------|------0-----------|
B|----------2-------|------0--0-------|------0--0------|----2-----2-------|
G|--------2---2-----|----4------4-----|----4------4----|--4---------4-----|
D|------2-----------|--2--------------|--2----------0--|--------------0---|
A|----4----------0--|-----------------|----------------|------------------|
E|--2---------------|--------------0--|----------------|------------------|

 "What is with..."
e|------------------|-----------------|----------------|------0-----------|
B|----------2-------|------0--0-------|------0--0------|----2-----2-------|
G|--------2---2-----|----4------4-----|----4------4----|--4---------4-----|
D|------2-----------|--2--------------|--2----------0--|------------------|
A|----4----------0--|-----------------|----------------|------------------|
E|--2---------------|--------------0--|----------------|------------------|

 "I'm  a man..."
e|------------------|-----------------|----------------|-----0^^^\------0------|
B|----------2-------|------0--0-------|------0--0------|-----3-\-5------5-\-7--|
G|--------2---2-----|----4------4-----|----4------4----|--4--4-\-6------6-\-7--|
D|------2-----------|--2--------------|--2----------0--|--------------0--------|
A|----4----------0--|-----------------|----------------|-----------------------|
E|--2---------------|--------------0--|----------------|-----------------------|


1st Guitar Solo
e|-----------------|------------|
B|-----------------|------------|
G|---9--(9)~~~--8--|~~~--7------|
D|-----------------|------------|
A|-----------------|------------|
E|-----------------|------------|


e|-------------------------|-----------------|-------------------|-----|
B|---------10-----(10)-----|---9-----(9)-----|---12-----(12)-----|-----|
G|-----x----------------6--|--------------9--|----------------8--|-----|
D|--x----------------------|-----------------|-------------------|-----|
A|-------------------------|-----------------|-------------------|-----|
E|-------------------------|-----------------|-------------------|-----|


e|-----------|-------|---------------------------|----------------------|
B|-15--------|-------|---------------------------|----------------------|
G|--------7--|~~~--\\|----------------4-----(4)--|---(4)-----(4)--6-----|
D|-----------|-------|------------4--------------|----------------------|
A|-----------|-------|--------x------------------|----------------------|
E|-----------|-------|-----x---------------------|----------------------|


e|---|-----------------|--------------------------|---------------------|
B|---|---------5--(5)--|--(5)~~~---5---(5)---(5)--|---(5)---(5)~~~------|
G|\4p|--2--------------|--------------------------|---------------------|
D|---|-----2-----------|--------------------------|---------------------|
A|---|-----------------|--------------------------|---------------------|
E|---|-----------------|--------------------------|---------------------|


e|-----------------|---------------|-----------------------------------|
B|-----------------|--12--(12)/15--|--(15)\12--15/17--(17)p14--17------|
G|---------6--(6)--|---------------|-----------------------------------|
D|-----x-----------|---------------|-----------------------------------|
A|--x--------------|---------------|-----------------------------------|
E|-----------------|---------------|-----------------------------------|


e|------|-----------------------------------------|
B|-p15--|--(15)p12--15/17--(17)p14--17--17~~~~~~--|
G|------|-----------------------------------------|
D|------|-----------------------------------------|
A|------|-----------------------------------------|
E|------|-----------------------------------------|

1:33
Riff 1
e|----------------------------------|
B|----------------------------------|
G|----------------------------------|
D|--2--2-2-2-2---------------9------|
A|--0--0-0-0-0--7-6-7--8-7-8---7-8--|
E|----------------------------------|

e|-------------------------------------------|
B|-------------------------------------------|
G|-------------------------------------------|
D|--2--2-2-2-2-------------------------------|
A|--0--0-0-0-0--7-6-7--8-6-7---6-------------|
E|---------------------------8---7~~---------|

Repeat Riff 1 two more times, then on the third time play Riff 2

Riff 2
e|----------------------------------|
B|----------------------------------|
G|----------------------------------|
D|--2--2-2-2-2---------------9------|
A|--0--0-0-0-0--7-6-7--8-7-8---7-8--|
E|----------------------------------|

e|-------------------------------------------|
B|-------------------------------------------|
G|-------------------------------------------|
D|--2--2-2-2-2-----------------2--3----------|
A|--0--0-0-0-0--7-6-7--8-6-7---0--1----------|
E|-------------------------------------------|

Riff 3
e|-------------------------------------------|
B|-------------------------------------------|
G|-------------------------------------------|
D|---------2-2-2--4-4-4--5-------------------|
A|--4-4-4--0-0-0--2-2-2--3--2--3-------------|
E|--2-2-2-------------------0--1-------------|

Repeat Riff 3 one more time dragging the last two notes out a little, play it again normal,
then play it a final time playing the last note again.

Now comes the softer part of the song. Play this three times:

 "Reverend..."
e|------------------|-----------------|----------------|------0-----------|
B|----------2-------|------0--0-------|------0--0------|----2-----2-------|
G|--------2---2-----|----4------4-----|----4------4----|--4---------4-----|
D|------2-----------|--2--------------|--2----------0--|------------------|
A|----4----------0--|-----------------|----------------|------------------|
E|--2---------------|--------------0--|----------------|------------------|

On the fourth time, play this: (with pick)
 "I watch..."
e------------------|-----------------|----------------|
B----------2-------|------0--0-------|------0--0------|
G--------2---2-----|----4------4-----|----4------4----|
D------2-----------|--2--------------|--2----------0--|
A----4----------0--|-----------------|----------------|
E--2---------------|--------------0--|----------------|

Slide the pick down the neck and play:

I cant figure it out.

Then at 3:02, play:

Riff 1
e|----------------------------------|
B|----------------------------------|
G|----------------------------------|
D|--2--2-2-2-2---------------9------|
A|--0--0-0-0-0--7-6-7--8-7-8---7-8--|
E|----------------------------------|

e|-------------------------------------------|
B|-------------------------------------------|
G|-------------------------------------------|
D|--2--2-2-2-2-------------------------------|
A|--0--0-0-0-0--7-6-7--8-6-7---6-------------|
E|---------------------------8---7~~---------|

Then:

Riff 2
e|----------------------------------|
B|----------------------------------|
G|----------------------------------|
D|--2--2-2-2-2---------------9------|
A|--0--0-0-0-0--7-6-7--8-7-8---7-8--|
E|----------------------------------|

e|-------------------------------------------|
B|-------------------------------------------|
G|-------------------------------------------|
D|--2--2-2-2-2-----------------2--3----------|
A|--0--0-0-0-0--7-6-7--8-6-7---0--1----------|
E|-------------------------------------------|

Riff 3
e-------------------------------------------|
B-------------------------------------------|
G-------------------------------------------|
D---------2-2-2--4-4-4--5-------------------|
A--4-4-4--0-0-0--2-2-2--3--2--3-------------|
E--2-2-2-------------------0--1-------------|

Repeat Riff 3 one more time dragging the last two notes out a little,
play it again normal, then play it a final time playing the last note
again. Then play:

  Sometimes when...
e|------------------|-----------------|----------------|------0-----------|
B|----------2-------|------0--0-------|------0--0------|----2-----2-------|
G|--------2---2-----|----4------4-----|----4------4----|--4---------4-----|
D|------2-----------|--2--------------|--2----------0--|------------------|
A|----4----------0--|-----------------|----------------|------------------|
E|--2---------------|--------------0--|----------------|------------------|

Play three more times, then:

e|------------------|-----------------|----------------|
B|----------2-------|------0--0-------|------0--0------|
G|--------2---2-----|----4------4-----|----4------4----|
D|------2-----------|--2--------------|--2----------0--|
A|----4----------0--|-----------------|----------------|
E|--2---------------|--------------0--|----------------|

Slide the pick down the neck, then play:

I cant figure it out

Then at 4:25, play:

Riff 1
e|----------------------------------|
B|----------------------------------|
G|----------------------------------|
D|--2--2-2-2-2---------------9------|
A|--0--0-0-0-0--7-6-7--8-7-8---7-8--|
E|----------------------------------|

e|-------------------------------------------|
B|-------------------------------------------|
G|-------------------------------------------|
D|--2--2-2-2-2-------------------------------|
A|--0--0-0-0-0--7-6-7--8-6-7---6-------------|
E|---------------------------8---7~~---------|

e|----------------------------------|
B|----------------------------------|
G|----------------------------------|
D|---------------9------------------|
A|--7-6-7--8-7-8---7-8--------------|
E|----------------------------------|

e|-------------------------------------------|
B|-------------------------------------------|
G|-------------------------------------------|
D|--2--2-2-2-2-------------------------------|
A|--0--0-0-0-0--7-6-7--8-6-7---6-------------|
E|---------------------------8---7~~---------|

e|----------------------------------|
B|----------------------------------|
G|----------------------------------|
D|--2--2-2-2-2---------------9------|
A|--0--0-0-0-0--7-6-7--8-7-8---7-8--|
E|----------------------------------|

e|---------------------------------------------------------|
B|---------------------------------------------------------|
G|---------------------------------------------------------|
D|--2--2-2-2-2---------5--------5--------5--------5--------|
A|--0--0-0-0-0--7-6-7--3--2--3--3--2--3--3--2--3--3--2--3--|
E|------------------------0--1-----0--1-----0--1-----0--1--|

Now here's the second solo:

4:52
e|------------------------|-----5-----5--4------|
B|---2-----2--5/7\5--3p2--|~~~-----2------------|
G|------4-----------------|---------------------|
D|------------------------|---------------------|
A|------------------------|---------------------|
E|------------------------|---------------------|

e|----12--------9---|-------|--12-----10--(10)~~~--10p9--|------9------|
B|--------9-----10--|--5/9--|------9---------------------|--12---------|
G|/9---------9------|-------|----------------------------|-------------|
D|------------------|-------|----------------------------|-------------|
A|------------------|-------|----------------------------|-------------|
E|------------------|-------|----------------------------|-------------|

                                                     Full   Full
e-------------|----------------------|--------7-----7-------------------|
B-10~~~--(10)\|/10--9--8--7--6--5h6--|--7~~~-----7------7~~~---(7)------|
G-------------|----------------------|----------------------------------|
D-------------|----------------------|----------------------------------|
A-------------|----------------------|----------------------------------|
E-------------|----------------------|----------------------------------|

             Full   Tap                              Tap
e|----------7-----------------------------|----7h9h10---12p10p9p7h9-----|
B|~~~--(7)------7------8p(7)--(7)p(5)~~~--|/9---------------------------|
G|----------------------------------------|-----------------------------|
D|----------------------------------------|-----------------------------|
A|----------------------------------------|-----------------------------|
E|----------------------------------------|-----------------------------|

     Tap                    Tap     Tap           Tap     Tap
e|-h10---12/14--(14)p12p10--|---14p10---14/16p14p12---15p12---15/17------|
B|--------------------------|--------------------------------------------|
G|--------------------------|--------------------------------------------|
D|--------------------------|--------------------------------------------|
A|--------------------------|--------------------------------------------|
E|--------------------------|--------------------------------------------|

e|-(17)p16p14--14--19/21--17------17--|------19--16------16--------------|
B|----------------------------19------|--19----------17------17~~~-------|
G|------------------------------------|----------------------------------|
D|------------------------------------|----------------------------------|
A|------------------------------------|-----------------------------7----|
E|------------------------------------|----------------------------------|

e|----|--------------------------------------------------------|---------|
B|----|--------------------------------------------------------|---------|
G|----|-----------------------------------------9--10--11--12--|---------|
D|----|---------------6--7--8--9--8--9--10--11-----------------|---------|
A|-7--|--7--8--9--10-------------------------------------------|--x------|
E|----|--------------------------------------------------------|---------|

                  P.SFull                Full                Full
e|-------------------|-----------14------------------14------------------|
B|-------------------|-------14------17p14-------14------17p14-----------|
G|----6--------6----\|---16------------------16------------------16------|
D|-x--------x--------|---------------------------------------------------|
A|-------x-----------|---------------------------------------------------|
E|-------------------|---------------------------------------------------|

                  Full                    Full     Full     Full
e|-----14--|----------------------14--------------14-------14-------|----|
B|-14------|--17p14-------14--14------17p14---17-------17-------17--|----|
G|---------|----------16--------------------------------------------|----|
D|---------|--------------------------------------------------------|----|
A|---------|--------------------------------------------------------|----|
E|---------|--------------------------------------------------------|----|

e|-21p14--21p14--21p14--21p14--20--20p14--20--20p14--20p14--|--19h20-----|
B|----------------------------------------------------------|------------|
G|----------------------------------------------------------|------------|
D|----------------------------------------------------------|------------|
A|----------------------------------------------------------|------------|
E|----------------------------------------------------------|------------|

E|-p19p17------19h20p19p17------------------------14--16--|--17--16------|
B|---------19---------------19--19--19--19~~~/17----------|--------------|
G|--------------------------------------------------------|--------------|
D|--------------------------------------------------------|--------------|
A|--------------------------------------------------------|--------------|
E|--------------------------------------------------------|--------------|

e|-14------14--17h19p17p14--14h17p14h17p14--14--14-----------------------|
B|-----17-------------------------------------------19p17p14--17p14------|
G|-----------------------------------------------------------------------|
D|-----------------------------------------------------------------------|
A|-----------------------------------------------------------------------|
E|-----------------------------------------------------------------------|

e|---------------------------------------------------------------------|
B|--14h15p14h15p14------14---------------------------------------------|
G|------------------17------17p14--16p14------14--------14h16p14-------|
D|----------------------------------------16------1/16-----------------|
A|---------------------------------------------------------------------|
E|---------------------------------------------------------------------|

w/ bar w/ bar        w/ bar
e|-------------------------------------------------|--------------------|
B|-------------------------------------------------|--------------------|
G|-\(14)\----13p11\10-\---11p10p9--11p1p9--10p9p8--|--10p9p8------------|
D|-------------------------------------------------|--------------------|
A|-------------------------------------------------|--------------------|
E|-------------------------------------------------|--------------------|

w/ bar   w/ barw/ bar      P.dive w/ bar
e|------------------------------------||--------------------------------|
B|------------------------------------||--------------------------------|
G|-/9p(7)-/9----/6------------\\------||--------------------------------|
D|------------------------x-----------||--------------------------------|
A|---------------------x--------------||--------------------------------|
E|------------------------------------||--------------------------------|

In the background, another guitar is playing:

e|------------------|-----------------|----------------|------0-----------|
B|----------2-------|------0--0-------|------0--0------|----2-----2-------|
G|--------2---2-----|----4------4-----|----4------4----|--4---------4-----|
D|------2-----------|--2--------------|--2----------0--|------------------|
A|----4----------0--|-----------------|----------------|------------------|
E|--2---------------|--------------0--|----------------|------------------|

Until 5:14, then comes:

Riff 3
e|-------------------------------------------|
B|-------------------------------------------|
G|-------------------------------------------|
D|---------2-2-2--4-4-4--5-------------------|
A|--4-4-4--0-0-0--2-2-2--3--2--3-------------|
E|--2-2-2-------------------0--1-------------|

Repeat 7 more times, then on the 8th time, play:

e|-------------------------------------------|
B|-------------------------------------------|
G|-------------------------------------------|
D|---------2-2-2--4-4-4--5--------5----------|
A|--4-4-4--0-0-0--2-2-2--3--2--3--3--2--3----|
E|--2-2-2-------------------0--1-----0--1----|

Then:

Riff 1
e|----------------------------------|
B|----------------------------------|
G|----------------------------------|
D|--2--2-2-2-2---------------9------|
A|--0--0-0-0-0--7-6-7--8-7-8---7-8--|
E|----------------------------------|

e|-------------------------------------------|
B|-------------------------------------------|
G|-------------------------------------------|
D|--2--2-2-2-2-------------------------------|
A|--0--0-0-0-0--7-6-7--8-6-7---6-------------|
E|---------------------------8---7~~---------|

e|----------------------------------|
B|----------------------------------|
G|----------------------------------|
D|---------------9------------------|
A|--7-6-7--8-7-8---7-8--------------|
E|----------------------------------|

e|-------------------------------------------|
B|-------------------------------------------|
G|-------------------------------------------|
D|--2--2-2-2-2-------------------------------|
A|--0--0-0-0-0--7-6-7--8-6-7---6-------------|
E|---------------------------8---7~~---------|

e|----------------------------------|
B|----------------------------------|
G|----------------------------------|
D|--2--2-2-2-2---------------9------|
A|--0--0-0-0-0--7-6-7--8-7-8---7-8--|
E|----------------------------------|

e|---------------------------------------|
B|---------------------------------------|
G|---------------------------------------|
D|--2--2-2-2-2---------5--------5--------|
A|--0--0-0-0-0--7-6-7--3--2--3--3--2--3--|
E|------------------------0--1-----0--1--|

Then:

6:14
e|----------------------------------|
B|----------------------------------|
G|----------------------------------|
D|--2--2-2-2-2----------------------|
A|--0--0-0-0-0--7-6-7~~~~~~---------|
E|----------------------------------|

e|-------------------------------------------|
B|-------------------------------------------|
G|-------------------------------------------|
D|--2--2-2-2-2------------9~~----------------|
A|--0--0-0-0-0--7-6-7--8---------------------|
E|-------------------------------------------|


******************

~   Vibrato
h   Hammer on
p   Pull off
x   dead note
/   Slide UP
\   Slide Down

******************
Suggest correction
comments
print report bad tab
84 comments total. Showing first comments.
+1 reply
c0ld_3mphasis05 30 wrote on January 23 2006, 04:42 pm

your work is appreciated. thank you.

+1 reply
SomeKindOfKirk 55 wrote on February 2 2006, 04:34 am

Good Tab(However I Only Readed It For Solo 2:P)

0 reply
Thedead_metal@7 51 wrote on April 15 2006, 10:04 am

I always wanted the pre-chrous!! good job, anyway.

guest
You may want to rate the tab now too:
select rating
Please do not post tabs as comments. Select "correction" instead!