Oops, an error
Loading. Please wait.

Cemetery Gates Bass Tab

version 5
version 5
1,216 views 1 this week
no commentswrite comment
1 2 3 4 5
please rate
add to favorites
launch autoscroll
font size
0
reset
guitar tuner
Tab Pro tools
  • play this tab
  • loop segment
  • change instrument
  • show fretboard
  • metronome
×
Best way to learn
"Cemetery Gates"
Autoscroll
slow
fast
+/-
esc
set tempo
stop
Contributor
----------------------------------------------------------------------------
                Cemetery gates-Pantera
----------------------------------------------------------------------------

Tabbed By : Joel Keane (jk41)
e-mail:
Another song with tabs that are not quite right. Rex got busy on this track
and mixed it up a bit. You have to listen hard but once you get it you can
follow it thru the song.Heres the full version, enjoy!

Tuning: 1/2 STEP DOWN
intro/first verse
G|--------------------------------------------------------------------------|
D|--------------------------------------------------------------------------|
A|------------------------5--4---------------------------------5--4---------|
E|-2-------5-------0------------7-5--0--2-------5-------0------------7-5--0-|

G|--------------------------------------------------------------------------|
D|--------------------------------------------------------------------------|
A|------------------------5--4---------------------------------5--4---------|
E|-2----2025----4570--540-------7-5--0--2----2025----4570--540-------7-5--0-|

G|--------------------------------------------------------------------------|
D|---------------------------------------------------------------------4/6--|
A|------------------------5--4---------------------------------5------------|
E|-2----2025----4570--540-------7-5--0--2----2025----4570--540--------------|

G|--------------------------------------------------------------------------|
D|-6/7---7/9---9/12---------------------------------------------------------|
A|--------------------------------------------------------------------------|
E|-----------------------------------2--------------2--------------2--------|

G|-----------------------------------------------------------------9------9-|
D|-------------------------------------------------------------9h11--9/11---|
A|--------------------------------------------------------------------------|
E|--2-----------2-------------2--------------2---------------2--------------|

G|--------------------------------------------------------------------------|
D|---------------------------------------------------------------------4/6--|
A|------------------------5--4---------------------------------5------------|
E|-2-------5-------0------------7-5--0--2-------5-------0--540--------------|

G|---------------------|
D|-6/7---7/9---9/12----|
A|---------------------|
E|---------------------|

chorus riff
G|---------------------------------------------------------|
D|--------------------3------------------------------------|
A|-------------------------------------7-6-7-8-6-7---6-----|
E|-5-5-5-5-5-5\1-1--1---1--5-5-5-5-5-5-------------8---7---|

G|---------------------------------------------------------|
D|--------------------3------------------------------------|
A|-------------------------------------7-6-7-8-6-7---------|
E|-5-5-5-5-5-5\1-1--1---1--5-5-5-5-5-5-------------8-0-1---|
post chorus
G|---------------------------------------------------|
D|---------------------------------------------------|
A|-------0-0-0-2-2-2-3-----------0-0-0-2-2-2-3-------|
E|-2-2-2---------------0-1-2-2-2---------------0-1---|

G|---------------------------------------------------|
D|---------------------------------------------------|
A|-------0-0-0-2-2-2-3-----------0-0-0-2-2-2-3-------|
E|-2-2-2---------------0-1-2-2-2---------------0-1-2-|
verse 2
G|--------------------------------------------------------------------------|
D|--------------------------------------------------------------------------|
A|------------------------5--4-------------------------------5--4-----------|
E|-2-------5-------0---0--------7-5--0--2---2025---4570--0454-----7-5--0----|

G|--------------------------------------------------------------------------|
D|--------------------------------------------------------------------------|
A|-----------------------554h5p4----------------------4-----------------5-5-|
E|-2-----025---4570--0454-------7-5--0--2----025--5457---0-0-0-0-0-0-0------|
            #guitar distorted
G|---------------------------------------------------------------------------|
D|------------------------7-----7-7----7----------7--------------------7-----|
A|-5-4-4---------------4/5----------4/5--------4/5--555-4-44--------4/5------|
E|---------0-0---2-2-2------5-5----------0-000--------------0-2-2-2------5-5-|

G|---------------------------------------------------------------------------|
D|-7-7----7----------7---------------------7---7-77----7----------7----------|
A|-----4/5--------4/5--555-4-44---------4/5---------4/5--------4/5--555-4-44-|
E|----------0-000---------------0-2-2-2------5-----------0-000---------------|

G|--------------------------------------------------|
D|------------7-----7-7----7----------7-------------|
A|---------4/5----------4/5--------4/5--5554--------|
E|-0-2-2-2------5-5----------0-000-----------4-4-5--|

Then its
Chorus
post chorus
full verse again with minor variations
chorus x 2
with second half of repeat ending with this fill
G|----------------------------------------------|
D|----------------------------------------------|
A|-------------7-6-7----------------------------|
E|-5-5-5-5-5-5-------5-0-1-5-0-1-55-01-55-01----|
solo backing
G|--------------------------------------------------------------------------|
D|--------------------------------------------------------------------------|
A|-----------------------5--4--------------------------------5--4-----------|
E|-2-------5-----5-0-0474------7-5--0--22220225--554570--0454------7-5--0---|

G|--------------------------------------------------------------------------|
D|--------------------------------------------------------------------------|
A|--------------------7--5--4-------------------------77777777-55554--------|
E|-2--220025---54570----0------7-5--0--2-0-0-25---5457---------------0-1----|

G|--------------------------------------------------------------------------|
D|--------------------------------------------------------------------------|
A|-------0-0-0-2-2-2-3-----------0-0-0-2-2-2-3-2-0-------0-0-0-2-2-2-3------|
E|-2-2-2---------------0-1-2-2-2-------------------2-2-2---------------0-1--|

G|--------------------------------------------------------------------------|
D|--------------------------------------------------------------------------|
A|-------0-0-0-2-2-2-3-----------0-0-0-2-2-2-3-2-0-------0-000-2-222-3------|
E|-2-2-2---------------0-1-2-2-2-------------------2-222---------------0-1--|


G|--------------------------------------------------------------------------|
D|--------------------------------------------------------------------------|
A|-------0-000-22222-3-2-0-------0-000-2-222-3-----------0-000-22222-3-2-0--|
E|-2-222-------------------2-222---------------0-1-2-222--------------------|

G|--------|
D|--------|
A|-3-2-0--|
E|--------|
outro chorus
G|---------------------------------------------------------|
D|--------------------3------------------------------------|
A|-------------------------------------7-6-7-8-6-7---6-----|
E|-5-5-5-5-5-5\1-1--1---1--5-5-5-5-5-5-------------8---7---|

G|---------------------------------------------------------|
D|--------------------3------------------------------------|
A|-------------------------------------7-6-7-8-6-7---6-----|
E|-5-5-5-5-5-5\1-1--1---1--5-5-5-5-5-5-------------8---7---|

G|---------------------------------------------------------|
D|--------------------3------------------------------------|
A|-------------------------------------7-6-7---------------|
E|-5-5-5-5-5-5\1-1--1---1--5-5-5-5-5-5-------5-0-1-5-0-1---|

G|---------------------------------------------------------|
D|--------------------3------------------------------------|
A|----------------------0-----------------------4-3--0-----|
E|-5-5-5-5-5-5\1-1--1------5-5-5-5-5-5-1-1-1--1------------|

G|---------------------------------------------------------|
D|---------------------------------------------------------|
A|-------------------------------------7-6-7-8b~-----------|
E|-5-5-5-5-5-5\1-1--1-1----5-5-5-5-5-5---------------------|

G|---------------------------------------------------------|
D|--------------------3------------------------------------|
A|-------------------------------------7-6-7-8-6-7---6-----|
E|-5-5-5-5-5-5\1-1--1---1--5-5-5-5-5-5-------------8---7---|

G|---------------------------------------------------------|
D|---------------------------------------------------------|
A|---------------------------------------------------------|
E|-5-5-5-5-5-5\1-1--1111---5-5-5-5-5-5-5-1-1--1-3-1-3b-----|


G|---------------------------------------------------------|
D|---------------3-----------------------------------------|
A|--------------------5----------------7-6-7-8-6-7---6-----|
E|-5-5-5-5-5-5\1--1-3---3--5-5-5-5-5-5-------------8---7---|

G|---------------------7-----------------------------------|
D|--------------3----5-------------------------------------|
A|----------------3-5---5-7---------------------3-5--------|
E|-5-5-5-5-5-5\1-----------5-5-5-5-5-5-5\1-1--1-----3~-----|

G|------------------------------------|
D|------------------------------------|
A|--------------------5---------------|
E|-5-5-5-5-5-5\1-1--3---3-5-----------|and fade out



| /  slide up
| \  slide down
| h  hammer-on
| p  pull-off
| ~  vibrato
| +  harmonic
| x  Mute note
===============================================================================
comments
We did not receive enough feedback on this tab! Please rate:
print report bad tab
1 2 3 4 5
I want to post or [tab]
guest
You may want to rate the tab now too:
select rating
Please do not post tabs as comments. Select "correction" instead!