Oops, an error
Loading. Please wait.

Cowboys From Hell Bass Tab

version 2
version 2
70,614 views 24 this week
8 commentsread comments
1 2 3 4 5
x 30
add to favorites
launch autoscroll
font size
0
reset
guitar tuner
Autoscroll
slow
fast
+/-
esc
set tempo
stop
Help us to improve Ultimate-Guitar.com Take our survey!
×
Cowboys From Hell                                 


Rex (Bass)
                                   2x                    2x                   
G|----------||--------------------||--------------------||------------------|
D|----------||*------------------*||*------------------*||------------------|
A|----------||*------------------*||*------------------*||------------------|
E|----------||--------------------||--------------------||------------------|

                                                                      
G|----------------------------------|---------------------------------|
D|*------------------------------0--|------------------------------0--|
A|*--------------------------1h2----|--------------------------1h2----|
E|---0-3-0-3-5-3-5-3-6-3-5-3--------|--0-3-0-3-5-3-5-3-6-3-5-3--------|

                                                                   
G|---------------------------------|-------------------------------||
D|------------------------------0--|------------------------------*||
A|--------------------------1h2----|------------------------------*||
E|--0-3-0-3-5-3-5-3-6-3-5-3--------|--0-3-0-3-5-3-5-3-6-5-3-0------||


                       2x                                  
G|---------------------||---------------------------------|
D|*-------------------*||---------------------0--------0--|
A|*-------------------*||---------------0h1h2----0h1h2----|
E|---0-----------------||--0-0--0--0--0-------------------|

                                                                       
G|-------------------------------|------------------------------------||
D|*---------------------------0--|-----------------------------------*||
A|*---------------------0-1h2----|---------------0h1p0-----0h1p0-----*||
E|---0-0--0--0--0--0--0----------|--0-0--0--0--0-------3-3-------3-1--||

                                                           
G|-----------------------------|------------------------------|
D|*----------------------------|---------------------------0--|
A|*----------------------------|---------------------0-1h2----|
E|---0-0--0--0--0--0--0-0-0-0--|--0-0--0--0--0--0--0----------|

                                                                  
G|----------------------------|------------------------------------||
D|----------------------------|-----------------------------------*||
A|----------------------------|---------------0h1p0-----0h1p0-----*||
E|--0-0--0--0--0--0--0-0-0-0--|--0-0--0--0--0-------3-3-------3-1--||

                                                              
G|-------------------------------|------------------------------|
D|-------------------------------|------------------------------|
A|-------------------------------|------------------------------|
E|--3-3-3-3-3-3-3-3-3-3-3-4--4---|--3-3-3-3-3-3-3-3-3-6---5--4--|

                                                         
G|----------------------------|---------------------------|
D|----------------------------|---------------------------|
A|----------------------------|---------------1-0---------|
E|--0-0--0--0--0--0--0-0-0-0--|--0-0--0--0--0-----3-0-----|

                                                                    
G|---------------------------------|---------------------------------|
D|------------------------------0--|------------------------------0--|
A|--------------------------1h2----|--------------------------1h2----|
E|--0-3-0-3-5-3-5-3-6-3-5-3--------|--0-3-0-3-5-3-5-3-6-3-5-3--------|

                                                                 
G|---------------------------------|------------------------------|
D|------------------------------0--|------------------------------|
A|--------------------------1h2----|------------------------------|
E|--0-3-0-3-5-3-5-3-6-3-5-3--------|--0-3-0-3-5-3-5-3-6-5-3-0-----|

                                                                   
G|---------------------------------|---------------------------------|
D|------------------------------0--|------------------------------0--|
A|--------------------------1h2----|--------------------------1h2----|
E|--0-3-0-3-5-3-5-3-6-3-5-3--------|--0-3-0-3-5-3-5-3-6-3-5-3--------|

                                                                 
G|---------------------------------|------------------------------|
D|------------------------------0--|------------------------------|
A|--------------------------1h2----|------------------------------|
E|--0-3-0-3-5-3-5-3-6-3-5-3--------|--0-3-0-3-5-3-5-3-6-5-3-0-----|

                                                      
G|-------------------|---------------------------------|
D|-------------------|---------------------0--------0--|
A|-------------------|---------------0h1h2----0h1h2----|
E|--0----------------|--0-0--0--0--0-------------------|

                                                                  
G|------------------------------|-----------------------------------|
D|---------------------------0--|-----------------------------------|
A|---------------------0-1h2----|---------------0h1p0-----0h1p0-----|
E|--0-0--0--0--0--0--0----------|--0-0--0--0--0-------3-3-------3-1-|

                                                                   
G|------------------------------|-----------------------------------|
D|---------------------------0--|-----------------------------------|
A|---------------------0-1h2----|---------------0h1p0-----0h1p0-----|
E|--0-0--0--0--0--0--0----------|--0-0--0--0--0-------3-3-------3-1-|

                                                              
G|-----------------------------|------------------------------|
D|*----------------------------|---------------------------0--|
A|*----------------------------|---------------------0-1h2----|
E|---0-0--0--0--0--0--0-0-0-0--|--0-0--0--0--0--0--0----------|

                                                                   
G|----------------------------|------------------------------------||
D|----------------------------|-----------------------------------*||
A|----------------------------|---------------0h1p0-----0h1p0-----*||
E|--0-0--0--0--0--0--0-0-0-0--|--0-0--0--0--0-------3-3-------3-1--||

                                                               
G|-------------------------------|------------------------------|
D|-------------------------------|------------------------------|
A|-------------------------------|------------------------------|
E|--3-3-3-3-3-3-3-3-3-3-3-4--4---|--3-3-3-3-3-3-3-3-3-6---5--4--|

                                                         
G|----------------------------|---------------------------|
D|----------------------------|---------------------------|
A|----------------------------|---------------1-0---------|
E|--0-0--0--0--0--0--0-0-0-0--|--0-0--0--0--0-----3-0-----|

                                                                    
G|---------------------------------|---------------------------------|
D|------------------------------0--|------------------------------0--|
A|--------------------------1h2----|--------------------------1h2----|
E|--0-3-0-3-5-3-5-3-6-3-5-3--------|--0-3-0-3-5-3-5-3-6-3-5-3--------|

                                                                 
G|---------------------------------|------------------------------|
D|------------------------------0--|------------------------------|
A|--------------------------1h2----|------------------------------|
E|--0-3-0-3-5-3-5-3-6-3-5-3--------|--0-3-0-3-5-3-5-3-6-5-3-0-----|

                                                                   
G|---------------------------------|---------------------------------|
D|------------------------------0--|------------------------------0--|
A|--------------------------1h2----|--------------------------1h2----|
E|--0-3-0-3-5-3-5-3-6-3-5-3--------|--0-3-0-3-5-3-5-3-6-3-5-3--------|

                                                                
G|---------------------------------|-----------------------------|
D|------------------------------0--|-----------------------------|
A|--------------------------1h2----|-----------------------------|
E|--0-3-0-3-5-3-5-3-6-3-5-3--------|--0-3-0-3-5-3-5-3--3---2--1--|

                                                                           
G|------------------------|------------------------|------------------------|
D|------------------------|------------------------|------------------------|
A|------------------------|--3--3--3--3--3----3----|--4--4--4--4--4----4----|
E|--0--0--0--0--0----0----|------------------------|------------------------|

                                                                           
G|---------------------------|-----------------------|----------------------|
D|---------------------------|-----------------------|----------------------|
A|--5--5--5-5-5-5--1---0-----|-----------------------|----3----3----3----3--|
E|------------------------3--|--0--0----0----0----0--|----------------------|

                                                                        
G|----------------------|-----------------------|------------------------|
D|----------------------|-----------------------|------------------------|
A|----4----4----4----4--|----5----5---1---0-----|------------------------|
E|----------------------|--------------------3--|--0--0--0--0--0----0----|

                                                                              
G|------------------------|------------------------|---------------------------|
D|------------------------|------------------------|---------------------------|
A|--3--3--3--3--3----3----|--4--4--4--4--4----4----|--5--5--5-5-5-5--1---0-----|
E|------------------------|------------------------|------------------------3--|

                                                                      
G|-----------------------|----------------------|----------------------|
D|-----------------------|----------------------|----------------------|
A|-----------------------|----3----3----3----3--|----4----4----4----4--|
E|--0--0----0----0----0--|----------------------|----------------------|

                                                          
G|-----------------------|---------------------------------|
D|-----------------------|---------------------------------|
A|----5----5---1---0-----|--7p5-----7p5-----7p5-----7------|
E|--------------------3--|------0-0-----0-0-----0-0----0-0-|

                                                                    
G|--------------------------------|----------------------------------|
D|--------------------------------|----------------------------14-14-|
A|--7p5-----7p5-----7p5-----------|--7p5-----7p5-----7p5-------------|
E|------0-0-----0-0-----5b-5~-0-0-|------0-0-----0-0-----6b-6~-------|

                                                                             
G|--14p12----12/11----11/10----9/7---7/5----|---------------------------------|
D|--------14-------12-------11-----9-----7--|---------------------------------|
A|------------------------------------------|--7p5-----7p5-----7p5-----7------|
E|------------------------------------------|------0-0-----0-0-----0-0----0-0-|

                                                                    
G|--------------------------------|----------------------------------|
D|--------------------------------|----------------------------14-14-|
A|--7p5-----7p5-----7p5-----------|--7p5-----7p5-----7p5-------------|
E|------0-0-----0-0-----5b-5~-0-0-|------0-0-----0-0-----6b-6~-------|

                                                                  
G|--14p12----12/11----11/10----9/7---7/5----|----------------------|
D|--------14-------12-------11-----9-----7--|----------------------|
A|------------------------------------------|----------------------|
E|------------------------------------------|--0-0---12/-----------|

                                                                         
G|-----------------------|----------------------|-------------------------|
D|-----------------------|----------------------|-------------------------|
A|--------7/-------------|----------------------|--------7----1-0---------|
E|--0-0----------0-0-----|--0-0---12/-----------|--0-0------------3-0-----|

                                                                      
G|----------------------------------|---------------------------------|
D|*------------------------------0--|------------------------------0--|
A|*--------------------------1h2----|--------------------------1h2----|
E|---0-3-0-3-5-3-5-3-6-3-5-3--------|--0-3-0-3-5-3-5-3-6-3-5-3--------|

                                                                   
G|---------------------------------|-------------------------------||
D|------------------------------0--|------------------------------*||
A|--------------------------1h2----|------------------------------*||
E|--0-3-0-3-5-3-5-3-6-3-5-3--------|--0-3-0-3-5-3-5-3-6-5-3-0------||

                                                                 
G|---------------------------------|------------------------------|
D|------------------------------0--|------------------------------|
A|--------------------------1h2----|------------------------------|
E|--0-3-0-3-5-3-5-3-6-3-5-3--------|--0-3-0-3-5-3-5-3-6-5-3-0-----|

                                                                  
G|---------------------------------|--------------------------------|
D|---------------------------------|--------------------------------|
A|--7p5-----7p5-----7p5-----7------|--7p5-----7p5-----7p5-----------|
E|------0-0-----0-0-----0-0----0-0-|------0-0-----0-0-----5b-5~-0-0-|

                                                                              
G|----------------------------------|--14p12----12/11----11/10----9/7---7/5----|
D|----------------------------14-14-|--------14-------12-------11-----9-----7--|
A|--7p5-----7p5-----7p5-------------|------------------------------------------|
E|------0-0-----0-0-----6b-6~-------|------------------------------------------|

                                                                   
G|---------------------------------|--------------------------------|
D|---------------------------------|--------------------------------|
A|--7p5-----7p5-----7p5-----7------|--7p5-----7p5-----7p5-----------|
E|------0-0-----0-0-----0-0----0-0-|------0-0-----0-0-----5b-5~-0-0-|

                                                                              
G|----------------------------------|--14p12----12/11----11/10----9/7---7/5----|
D|----------------------------14-14-|--------14-------12-------11-----9-----7--|
A|--7p5-----7p5-----7p5-------------|------------------------------------------|
E|------0-0-----0-0-----6b-6~-------|------------------------------------------|

                                    
G|------------------------------|---||
D|------------------------------|---||
A|-----------------0h1p0--------|---||
E|--0-0-0-0--0-----------3--3-0-|---||



************************************

| h  Hammer-on
| p  Pull-off
| b  Bend
| /  Slide up
| ~  Vibrato

************************************
Suggest correction
comments
print report bad tab
8 comments total. Showing first comments.
0 reply
ernieballolp 713 Aug 22, 2007 06:25 PM

nice tab!, it sounds good

0 reply
bassplayerguy69 10 Oct 14, 2008 03:39 PM

looks right, sounds right...good tab!!

0 reply
carltyler 40 Jan 15, 2009 10:02 AM

nice tab man better than ver 1 keep at it.

guest
You may want to rate the tab now too:
select rating
Wanna post a correction for this tab? Suggest correction