Oops, an error
Loading. Please wait.

Cowboys From Hell Tab

version 3
29,913 views 42 this week
2 commentsread comments
1 2 3 4 5
x 10
add to favorites
launch autoscroll
font size
0
reset
how to read this tab
guitar tuner
Autoscroll
slow
fast
+/-
esc
set tempo
stop
Help us to improve Ultimate-Guitar.com Take our survey!
×
> = Pinch harmonics.
s = slide.
h = hammer on.

Tabs by Caleb  any question e-mail me at Radashell@hotmail.com

At 12 seconds

-----------------------------------                   -------------------------------|
-----------------------------------   Reapeat 3x      -------------------------------|
-----------------------------------                   -------------------------------|
---------------------------------12                   -------------------------------|
------------12--12--13--12--13h14--                   ------------12--12--13-12------|
-12-15-12-15--15--15--15--15-------                   -12-15-12-15--15--15-----15-12-|

At 17 seconds

---------------------------------------------------------------------------|
---------------------------------------------------------------------------|
---------------------------------------------------------------------------|
------------2----2----------------0----------------2----2----------------0-|
------------0----0----1---0---1H2------------------0----0----1---0---1H2---|
-0--3--0--3---3-----3---3---3-----------0--3--0--3---3-----3---3---3-------|

--------------------------------------------------------------------|
--------------------------------------------------------------------|
--------------------------------------------------------------------|
------------2----2----------------0---------------2----2------------|
------------0----0----1---0---1H2-----------------0----0----1-0-----|
-0--3--0--3---3-----3---3---3----------0--3--0--3---3-----3-----3-0-|


Verse Riff at 34 seconds

-------------------------------------   Repeat 3x       -------------------------------------|
-------------------------------------                   -------------------------------------|
-------------------------------------                   -------------------------------------|
------------------------------------0                   --------------------------0-------0--|
------------------------------0-1h2--                   --------------------0-1h2---0-1h2----|
-0--0----0----0----0----0---0--------                   -0--0----0----0---0------------------|

---------------------------------------------------------------------------------|
---------------------------------------------------------------------------------|
---------------------------------------------------------------------------------|
------------------------------------0--------------------------------------------|
------------------------------0-1h2--------------------------0-1-0-----0-1-0-----|
-0--0----0----0----0----0---0------------0--0----0----0----0-------3-3-------3-2-|

Verse at 51 seconds

Under___ lights where we stand        nobody touches us at all______

------------------------------------------------------------------------|
------------------------------------------------------------------------|
------------------------------------------------------------------------|
----------------------------------------------------------------------0-|
----------------------------------------------------------------0-1h2---|
-0--0----0----0--0----0--0-0-0-0---0--0----0----0----0----0---0---------|


Show down____ shout out_____         spread fear with in with out  we are

-----------------------------------------------------------------------------|
-----------------------------------------------------------------------------|
-----------------------------------------------------------------------------|
-----------------------------------------------------------------------------|
---------------------------------------------------------0-1-0-----0-1-0-----|
--0--0----0----0--0----0--0-0-0-0----0--0----0----0----0-------3-3-------3-2-|


Gonna take whats ours to have     Spread word through out the land they say


-------------------------------------------------------------------------|
-------------------------------------------------------------------------|
-------------------------------------------------------------------------|
-----------------------------------------------------------------------0-|
-----------------------------------------------------------------0-1h2---|
-0--0----0----0--0----0--0-0-0-0---0--0----0----0----0----0---0----------|

Bad boys      wear black____          We're tagged and can't__ turn back__
-----------------------------------------------------------------------------|
-----------------------------------------------------------------------------|
-----------------------------------------------------------------------------|
-----------------------------------------------------------------------------|
----------------------------------------------------------0-1-0-----0-1-0----|
--0--0----0----0--0----0--0-0-0-0----0--0----0----0----0-------3-3-------3-2-|

Pre Chorus at 1:08

You see us comin' and you        all together run for cover

------------------------------------------------------------|
------------------------------------------------------------|
------------------------------------------------------------|
--5-5-5-5-5-5-5-5-5-5-5--6---6---5-5-5-5-5-5-5-5-5--8--7--6-|
--5-5-5-5-5-5-5-5-5-5-5--6---6---5-5-5-5-5-5-5-5-5--8--7--6-|
--3-3-3-3-3-3-3-3-3-3-3--4---4---3-3-3-3-3-3-3-3-3--6--5--4-|

spoken    we're takin' over        this town____

--------------------------------------------------------------|
--------------------------------------------------------------|
--------------------------------------------------------------|
--------------------------------------------------------------|
-----------------------------------------------------1-0------|
-0--0----0----0--0----0--0-0-0-0---0--0---0----0---0------3-0-|


Chorus 1:16

Here we come reach for your gun        and you better listen well my friend you see

-----------------------------------------------------------------------------|
-----------------------------------------------------------------------------|
-----------------------------------------------------------------------------|
------------2----2----------------0-----------------2----2----------------0--|
------------0----0----1---0---1H2-------------------0----0----1---0---1H2----|
-0--3--0--3---3-----3---3---3------------0--3--0--3---3-----3---3---3--------|


It's been slow down be low           Aimed at you we're the cowboys from hell


--------------------------------------------------------------------|
--------------------------------------------------------------------|
--------------------------------------------------------------------|
------------2----2----------------0---------------2----2------------|
------------0----0----1---0---1H2-----------------0----0----1-0-----|
-0--3--0--3---3-----3---3---3----------0--3--0--3---3-----3-----3-0-|


Deed is done again we've won ain't     talking no tall tails friend 'cause


-----------------------------------------------------------------------------|
-----------------------------------------------------------------------------|
-----------------------------------------------------------------------------|
------------2----2----------------0-----------------2----2----------------0--|
------------0----0----1---0---1H2-------------------0----0----1---0---1H2----|
-0--3--0--3---3-----3---3---3------------0--3--0--3---3-----3---3---3--------|

High noon______  you're doomed          Comin' for you  we're the cowboys from hell

--------------------------------------------------------------------|
--------------------------------------------------------------------|
--------------------------------------------------------------------|
------------2----2----------------0---------------2----2------------|
------------0----0----1---0---1H2-----------------0----0----1-0-----|
-0--3--0--3---3-----3---3---3----------0--3--0--3---3-----3-----3-0-|


Verse Riff 1:33


-------------------------------------   Repeat 3x       -------------------------------------|
-------------------------------------                   -------------------------------------|
-------------------------------------                   -------------------------------------|
------------------------------------0                   --------------------------0-------0--|
------------------------------0-1h2--                   --------------------0-1h2---0-1h2----|
-0--0----0----0----0----0---0--------                   -0--0----0----0---0------------------|

----------------------------------------------------------------------------------|
----------------------------------------------------------------------------------|
----------------------------------------------------------------------------------|
------------------------------------0---------------------------------------------|
------------------------------0-1h2--------------------------0-1-0-----0-1-0------|
-0--0----0----0----0----0---0-----------0--0----0----0----0--------3-3--------3-2-|

Verse

Pilage the village trash the scene    Better not take it out on me 'cause

-------------------------------------------------------------------------|
-------------------------------------------------------------------------|
-------------------------------------------------------------------------|
-----------------------------------------------------------------------0-|
-----------------------------------------------------------------0-1h2---|
-0--0----0----0--0----0--0-0-0-0---0--0----0----0----0----0---0----------|

Ghost town        is found          Where    your   city     used   to be so

-----------------------------------------------------------------------------|
-----------------------------------------------------------------------------|
-----------------------------------------------------------------------------|
-----------------------------------------------------------------------------|
--------------------------------------------------------0-1-0-----0-1-0------|
-0--0----0----0--0----0--0-0-0-0---0--0----0----0----0--------3-3--------3-2-|

Out darkness and into the lights    Sparks fly every where in sight from my

-------------------------------------------------------------------------|
-------------------------------------------------------------------------|
-------------------------------------------------------------------------|
-----------------------------------------------------------------------0-|
-----------------------------------------------------------------0-1h2---|
-0--0----0----0--0----0--0-0-0-0---0--0----0----0----0----0---0----------|

double barrel______  12 gauge     Can't lock me in______ your ca_____ge

-----------------------------------------------------------------------------|
-----------------------------------------------------------------------------|
-----------------------------------------------------------------------------|
-----------------------------------------------------------------------------|
--------------------------------------------------------0-1-0-----0-1-0------|
-0--0----0----0--0----0--0-0-0-0---0--0----0----0----0--------3-3--------3-2-|

Pre Chorus 2:03

You see us comin' and you       All together run for cover

------------------------------------------------------------|
------------------------------------------------------------|
------------------------------------------------------------|
--5-5-5-5-5-5-5-5-5-5-5--6---6---5-5-5-5-5-5-5-5-5--8--7--6-|
--5-5-5-5-5-5-5-5-5-5-5--6---6---5-5-5-5-5-5-5-5-5--8--7--6-|
--3-3-3-3-3-3-3-3-3-3-3--4---4---3-3-3-3-3-3-3-3-3--6--5--4-|

[spoken]  We're takin' over this town

--------------------------------------------------------------|
--------------------------------------------------------------|
--------------------------------------------------------------|
--------------------------------------------------------------|
-----------------------------------------------------1-0------|
-0--0----0----0--0----0--0-0-0-0---0--0---0----0---0------3-0-|


Chorus 2:11

Here we come reach for your gun        and you better listen well my friend you see

-----------------------------------------------------------------------------|
-----------------------------------------------------------------------------|
-----------------------------------------------------------------------------|
------------2----2----------------0-----------------2----2----------------0--|
------------0----0----1---0---1H2-------------------0----0----1---0---1H2----|
-0--3--0--3---3-----3---3---3------------0--3--0--3---3-----3---3---3--------|

It's been slow down be low           Aimed at you we're the cowboys from hell

--------------------------------------------------------------------|
--------------------------------------------------------------------|
--------------------------------------------------------------------|
------------2----2----------------0---------------2----2------------|
------------0----0----1---0---1H2-----------------0----0----1-0-----|
-0--3--0--3---3-----3---3---3----------0--3--0--3---3-----3-----3-0-|

Deed is done again we've won ain't     talking no tall tails friend 'cause

-----------------------------------------------------------------------------|
-----------------------------------------------------------------------------|
-----------------------------------------------------------------------------|
------------2----2----------------0-----------------2----2----------------0--|
------------0----0----1---0---1H2-------------------0----0----1---0---1H2----|
-0--3--0--3---3-----3---3---3------------0--3--0--3---3-----3---3---3--------|


High noon______  you're doomed          Comin' for you  we're the cowboys from hell

-------------------------------------------------------------------------|
-------------------------------------------------------------------------|
-------------------------------------------------------------------------|
-------------2----2----------------0---------------2----2----------------|
-------------0----0----1---0---1H2-----------------0----0--------5--4--3-|
--0--3--0--3---3-----3---3---3----------0--3--0--3---3-----3--0--3--2--1-|


Solo 2:27


-----------------------------------------------------------|
-----------------------------------------------------------|
-------------------------------------15----15----15----15--|
---------8---8---8-----\--/-14----------14----14----14-----|
-7---------7---7-------------------------------------------|
-----------------------------------------------------------|


------------------------------------------------------------------------|
------------------------------------------------------------------------|
------------------------------------------------------------------------|
-------------------------------------------------11--12--15--11--12--15-|
-------------------------11--12--15--11--12--15-------------------------|
-11--12--15--11--12--15-------------------------------------------------|

------------------------------------------------11--12--15--12--10--x--10--12--15--12--10--|
------------------------11--12--15--11--12--15---------------------------------------------|
-11--12--15--11--12--15--------------------------------------------------------------------|
-------------------------------------------------------------------------------------------|
-------------------------------------------------------------------------------------------|
-------------------------------------------------------------------------------------------|

             Bend up            p   p                   p   p                 p   p
-15--12--15--(18)----12--14---17--14--12----12--14---17--14--12----12--14---17--14--12--X--|
-------------------------------------------------------------------------------------------|
-------------------------------------------------------------------------------------------|
-------------------------------------------------------------------------------------------|
-------------------------------------------------------------------------------------------|
-------------------------------------------------------------------------------------------|

     h   h   p   p   h        p    p   h   p       p    p  h    p            p   h   p
--12--15--19--15--12--15--20----15--12--15--12------------------------------------------------|
------------------------------------------------20---15--12--15--12---------------------------|
----------------------------------------------------------------------20--15--12--15--12------|
------------------------------------------------------------------------------------------20--|
----------------------------------------------------------------------------------------------|
----------------------------------------------------------------------------------------------|

                                                 bu     bd    bu              bu
--------------------------------------------------------------------15------------|
-----------------------------------------------------------------------15----(17--|
------------------------15----15----15-------15--(17)--(15)--(17)-----------------|
-15--12--15--12--14--------14----14-----------------------------------------------|
----------------------------------------------------------------------------------|
----------------------------------------------------------------------------------|

                          bu
--------18-----18----18--(21)-------------------------------------------------|
---17------17-----17---------------------12-----------------12----------------|
-------------------------------------14-----15-14-12-14-15-----15-14-12-14-15-|
------------------------------------------------------------------------------|
------------------------------------------------------------------------------|
------------------------------------------------------------------------------|

                                        ^   ^                  bu
----------------------------------------------------------14--(15--|
--12----------------12------------------12--12---------------------|
-----15-14-12-14-15----15-14-12-14-15---12--12---------------------|
--------------------------------------------------12h14------------|
-------------------------------------------------------------------|
-------------------------------------------------------------------|


-12---14---------12---15----------12--14----------12-----------------------------|
---------15--(17)--------15--(17)--------15--(17)----12--(14)(12)----------------|
-------------------------------------------------------------------14-(16)--(14)-|
---------------------------------------------------------------------------------|
---------------------------------------------------------------------------------|
---------------------------------------------------------------------------------|


--------15--------------19------20-------21-------|
-11-s-12----12----s-15----15s17----17s18----18s19-|
--------------------------------------------------|
--------------------------------------------------|
--------------------------------------------------|
--------------------------------------------------|


End Solo 3:00


------------------------------------------------------------------------------------|
------------------------------------------------------------------------------------|
---------------------------------------------------2>-------------------------------|
-2-0-----2-0-----2-0-5>--------2-0-----2-0-----2-0----------2-0-----2-0------2-0-5>-|
------------------------------------------------------------------------------------|
-----0-0-----0-0-----------0-0-----0-0-----0-0----------0-0-----0-0------0-0--------|


--------------------------------------------------------------------------|
--------------------------------------------------------------------------|
-------14-p12----12-s11----11-s9----9-s7---7-s6---------------------------|
-12-12--------14--------12-------11------9------7--2-0-----2-0-----2-0-5>-|
--------------------------------------------------------------------------|
-------------------------------------------------------0-0-----0-0--------|


-----------------------------------------------------------|
-----------------------------------------------------------|
-------------------------2>--------------------------------|
-----2-0-----2-0-----2-0-----------2-0-----2-0-----2-0-5>--|
-----------------------------------------------------------|
-0-0-----0-0-----0-0-----------0-0-----0-0-----0-0---------|


0--X--17-p15-----15-s14----14-s12-----12-s10----10-s9----|
--------------17--------15--------14---------12-------10-|
---------------------------------------------------------|
---------------------------------------------------------|
---------------------------------------------------------|
---------------------------------------------------------|


Intro Riff at 3:17 w/ spoken vocals

We're takin' over this town

-----------------------------------                   -------------------------------|
-----------------------------------   Reapeat 3x      -------------------------------|
-----------------------------------                   -------------------------------|
---------------------------------12                   -------------------------------|
------------12--12--13--12--13h14--                   ------------12--12--13-12------|
-12-15-12-15--15--15--15--15-------                   -12-15-12-15--15--15-----15-12-|


Chorus

Here we come reach for your gun        and you better listen well my friend you see

-----------------------------------------------------------------------------|
-----------------------------------------------------------------------------|
-----------------------------------------------------------------------------|
------------2----2----------------0-----------------2----2----------------0--|
------------0----0----1---0---1H2-------------------0----0----1---0---1H2----|
-0--3--0--3---3-----3---3---3------------0--3--0--3---3-----3---3---3--------|

It's been slow down be low           Aimed at you we're the cowboys from hell

--------------------------------------------------------------------|
--------------------------------------------------------------------|
--------------------------------------------------------------------|
------------2----2----------------0---------------2----2------------|
------------0----0----1---0---1H2-----------------0----0----1-0-----|
-0--3--0--3---3-----3---3---3----------0--3--0--3---3-----3-----3-0-|

Deed is done again we've won ain't     talking no tall tails friend 'cause

-----------------------------------------------------------------------------|
-----------------------------------------------------------------------------|
-----------------------------------------------------------------------------|
------------2----2----------------0-----------------2----2----------------0--|
------------0----0----1---0---1H2-------------------0----0----1---0---1H2----|
-0--3--0--3---3-----3---3---3------------0--3--0--3---3-----3---3---3--------|


High noon______  you're doomed          Comin' for you  we're the cowboys from hell

--------------------------------------------------------------------|
--------------------------------------------------------------------|
--------------------------------------------------------------------|
------------2----2----------------0---------------2----2------------|
------------0----0----1---0---1H2-----------------0----0----1-0-----|
-0--3--0--3---3-----3---3---3----------0--3--0--3---3-----3-----3-0-|

All___________________________         Step aside we're the cowboys from hell

--------------------------------------------------------------------|
--------------------------------------------------------------------|
--------------------------------------------------------------------|
------------2----2----------------0---------------2----2------------|
------------0----0----1---0---1H2-----------------0----0----1-0-----|
-0--3--0--3---3-----3---3---3----------0--3--0--3---3-----3-----3-0-|


Outro at 3:46


------------------------------------------------------------------------------------|
------------------------------------------------------------------------------------|
---------------------------------------------------2>-------------------------------|
-2-0-----2-0-----2-0-5>--------2-0-----2-0-----2-0----------2-0-----2-0------2-0-5>-|
------------------------------------------------------------------------------------|
-----0-0-----0-0-----------0-0-----0-0-----0-0----------0-0-----0-0------0-0--------|


--------------------------------------------------------------------------|
--------------------------------------------------------------------------|
-------14-p12----12-s11----11-s9----9-s7---7-s6---------------------------|
-12-12--------14--------12-------11------9------7--2-0-----2-0-----2-0-5>-|
--------------------------------------------------------------------------|
-------------------------------------------------------0-0-----0-0--------|


-----------------------------------------------------------0--X--17-p15-----15-s14----14-s12-----|
-------------------------------------------------------------------------17--------15--------14--|
-------------------------2>----------------------------------------------------------------------|
-----2-0-----2-0-----2-0-----------2-0-----2-0-----2-0-5>----------------------------------------|
-------------------------------------------------------------------------------------------------|
-0-0-----0-0-----0-0-----------0-0-----0-0-----0-0-----------------------------------------------|
Suggest correction
comments
print report bad tab
2 comments total.
0 reply
megadeth111 10 Mar 28, 2005 12:00 AM

perfect i recently got the tab book did u get it . cuz its right on nigger peace

0 reply
SomeKindOfKirk 55 May 13, 2006 09:57 AM

There are only a few pull-ofs missing and that Middle-8 Riff After The Solo is played in the wrong position it must be
D------------
A7p5----7p5--
E----00-----00
and so on
but for the rest this is excellent
And about the riff i'm sure it's played like this cus i've seem dime playing it like this
R.I.P. Dime

guest
You may want to rate the tab now too:
select rating
Wanna post a correction for this tab? Suggest correction