Oops, an error
Loading. Please wait.

Cowboys From Hell Tab

version 4
545,302 views 375 this week
99 commentsread comments
1 2 3 4 5
excellent!
x 201
add to favorites
launch autoscroll
font size
0
reset
how to read this tab
guitar tuner
Autoscroll
slow
fast
+/-
esc
set tempo
stop
Help us to improve Ultimate-Guitar.com Take our survey!
×
Contributor
Andrew Zara 3,571
Band- Pantera
Song- Cowboys From Hell

   Em
      x 2 2 0 x x

Gtr I (E A D G B E) - 'Dimebag'
Gtr II (E A D G B E) - 'Dimebag2'
Gtr III (E A D G B E) - 'Dimebag3'
Gtr IV (E A D G B E) - 'Dimebag4'


[Intro]

   Moderate Rock Q=118
           (E)
  4/4
        Gtr I
   H    E. S S S S S    S S S S S S S S S S S S S S S S
e|-------------------||---------------------------------|
B|-------------------||---------------------------------|
G|-------------------||---------------------------------|
D|-------------------||---------------------------------|
A|-------------------||---------------------------------|
E|---------0-0-0-0-0-||-0-0-0-0-0-0-0-0-0-0-0-0-0-0-0-0-|


   S S S S S S S S S S S S S S S S
e|----------------------------------|
B|----------------------------------|
G|----------------------------------|
D|----------------------------------|
A|----------------------------------|
E|-0-0-0-0-0-0-0-0-0-0-0-0-0-0-0-0--|


   S S S S S S S S S S S S S S S S
e|---------------------------------|
B|---------------------------------|
G|---------------------------------|
D|---------------------------------|
A|---------------------------------|
E|-0-0-0-0-0-0-0-0-0-0-0-0-0-0-0-0-|
|
 | Gtr II
 | W
e|---------------------------------|
B|---------------------------------|
G|---------------------------------|
D|---------------------------------|
A|---------------------------------|
E|---------------------------------|


   PM------------------------------|
   S  S  S  S  S  S  S  S  S  S  S  S  S  S  E
e|------------------------------------------------|
B|------------------------------------------------|
G|------------------------------------------------|
D|-------------------------------------------12---|
A|-------------12----12----13----12----13h14------|
E|-12-15-12-15----15----15----15----15------------|
|
 |  S  S  S  S  S  S  S  S  S  S  S  S  S  S  S S
e|------------------------------------------------|
B|------------------------------------------------|
G|------------------------------------------------|
D|------------------------------------------------|
A|------------------------------------------------|
E|--0--0--0--0--0--0--0--0--0--0--0--0--0--0--0-0-|


   PM------------------------------|
   S  S  S  S  S  S  S  S  S  S  S  S  S  S  E
e|------------------------------------------------|
B|------------------------------------------------|
G|------------------------------------------------|
D|-------------------------------------------12---|
A|-------------12----12----13----12----13h14------|
E|-12-15-12-15----15----15----15----15------------|
|
 |  S  S  S  S  S  S  S  S  S  S  S  S  S  S  S S
e|------------------------------------------------|
B|------------------------------------------------|
G|------------------------------------------------|
D|------------------------------------------------|
A|------------------------------------------------|
E|--0--0--0--0--0--0--0--0--0--0--0--0--0--0--0-0-|


   PM------------------------------|
   S  S  S  S  S  S  S  S  S  S  S  S  S  S  E
e|------------------------------------------------|
B|------------------------------------------------|
G|------------------------------------------------|
D|-------------------------------------------12---|
A|-------------12----12----13----12----13h14------|
E|-12-15-12-15----15----15----15----15------------|
|
 |  S  S  S  S  S  S  S  S  S  S  S  S  S  S  S S
e|------------------------------------------------|
B|------------------------------------------------|
G|------------------------------------------------|
D|------------------------------------------------|
A|------------------------------------------------|
E|--0--0--0--0--0--0--0--0--0--0--0--0--0--0--0-0-|


                                               E5      A5
   PM------------------|                       PM--------------------|
   S  S  S  S  S  S  S  S  S  S  S  S  +Q      S S S S S S S S S S S S S S E
e|--------------------------------------------|-------------------------------|
B|--------------------------------------------|-------------------------------|
G|--------------------------------------------|-------------------------------|
D|--------------------------------------------|---------2---2---------------0-|
A|-------------12----12----13-12-10-----------|-2---2---0---0---1---0---1h2---|
E|-12-15-12-15----15----15----------12-(12)\--|-0-3-0-3---3---3---3---3-------|
|
|                                              PM--------------------|
|  S  S  S  S  S  S  S  S  S  S  S  S  +Q      S S S S S S S S S S S S S S E
e|--------------------------------------------|-------------------------------|
B|--------------------------------------------|-------------------------------|
G|--------------------------------------------|-------------------------------|
D|--------------------------------------------|---------2---2---------------0-|
A|-------------------------13-12-10-----------|-2---2---0---0---1---0---1h2---|
E|--0--0--0--0--0--0--0--0----------12-(12)\--|-0-3-0-3---3---3---3---3-------|
|
 | Gtr III
 |  H                       S  S  S  S  +Q      W
e|--------------------------------------------|-------------------------------|
B|--------------------------------------------|-------------------------------|
G|--------------------------------------------|-------------------------------|
D|--------------------------------------------|-------------------------------|
A|-------------------------13-12-10-----------|-------------------------------|
E|----------------------------------12-(12)\--|-------------------------------|


  E5      A5
  Gtrs I, II
  PM--------------------|
  S S S S S S S S S S S S S S E
e|-------------------------------|
B|-------------------------------|
G|-------------------------------|
D|---------2---2---------------0-|
A|-2---2---0---0---1---0---1h2---|
E|-0-3-0-3---3---3---3---3-------|


  E5      A5                      E5      A5            E5
  PM--------------------|         PM------------|
  S S S S S S S S S S S S S S E   S S S S S S S S S S S S Q
e|-------------------------------|-----------------------------|
B|-------------------------------|-----------------------------|
G|-------------------------------|-----------------------------|
D|---------2---2---------------0-|---------2---2---------------|
A|-2---2---0---0---1---0---1h2---|-2---2---0---0---1-0---2-----|
E|-0-3-0-3---3---3---3---3-------|-0-3-0-3---3---3-----3-0-----|


  E5      A5
  PM--------------------|
  S S S S S S S S S S S S S S E
e|-------------------------------|
B|-------------------------------|
G|-------------------------------|
D|---------2---2---------------0-|
A|-2---2---0---0---1---0---1h2---|
E|-0-3-0-3---3---3---3---3-------|


  E5      A5                      E5      A5
  PM--------------------|         PM--------------------|
  S S S S S S S S S S S S S S E   S S S S S S S S S S S S S S E
e|-------------------------------|-------------------------------|
B|-------------------------------|-------------------------------|
G|-------------------------------|-------------------------------|
D|---------2---2---------------0-|---------2---2---------------0-|
A|-2---2---0---0---1---0---1h2---|-2---2---0---0---1---0---1h2---|
E|-0-3-0-3---3---3---3---3-------|-0-3-0-3---3---3---3---3-------|


  E5      A5            E5     N.C.(E)
                               Gtr I
  PM------------|              PM--------------------|
                                                       |-3-|
  S S S S S S S S S S S S Q    S S S S S S S S S S S S S S S E
e|----------------------------|---------------------------------|
B|----------------------------|---------------------------------|
G|----------------------------|---------------------------------|
D|---------2---2--------------|-------------------------------0-|
A|-2---2---0---0---1-0---2----|-------------------------0h1h2---|
E|-0-3-0-3---3---3-----3-0----|-0-0---0---0---0---0---0---------|


  Gtrs I, II
  PM--------------------|
                          |-3-|
  S S S S S S S S S S S S S S S E
e|-----------------------------------|
B|-----------------------------------|
G|-----------------------------------|
D|-------------------------------0---|
A|-------------------------0h1h2-----|
E|-0-0---0---0---0---0---0-----------|


  PM--------------------|
                          |-3-|
  S S S S S S S S S S S S S S S E
e|---------------------------------|
B|---------------------------------|
G|---------------------------------|
D|-------------------------------0-|
A|-------------------------0h1h2---|
E|-0-0---0---0---0---0---0---------|


  PM------------|                   PM--------------------|
                  |-3-|   |-3-|                             |-3-|
  S S S S S S S S S S S E S S S E   S S S S S S S S S S S S S S S E
e|---------------------------------|---------------------------------|
B|---------------------------------|---------------------------------|
G|---------------------------------|---------------------------------|
D|-----------------------0-------0-|-------------------------------0-|
A|-----------------0h1h2---0h1h2---|-------------------------0h1h2---|
E|-0-0---0---0---0-----------------|-0-0---0---0---0---0---0---------|


  PM------------|                       PM--------------------|
                  |-3-|     |-3-|                               |-3-|
  S S S S S S S S S S S S S S S S S S   S S S S S S S S S S S S S S S E
e|-------------------------------------|---------------------------------|
B|-------------------------------------|---------------------------------|
G|-------------------------------------|---------------------------------|
D|-------------------------------------|-------------------------------0-|
A|-----------------0h1p0-----0h1p0-----|-------------------------0h1h2---|
E|-0-0---0---0---0-------3-3-------3-1-|-0-0---0---0---0---0---0---------|


  PM------------|
                  |-3-|     |-3-|
  S S S S S S S S S S S S S S S S S S
e|-------------------------------------||
B|-------------------------------------||
G|-------------------------------------||
D|-------------------------------------||
A|-----------------0h1p0-----0h1p0-----||
E|-0-0---0---0---0-------3-3-------3-1-||


[Verse 1 and 2]

    PM------------------------------------------------------|
                                                              |-3-|
    S S S S S S S S S S S S S S S S   S S S S S S S S S S S S S S S E
e||----------------------------------|---------------------------------|
B||o---------------------------------|---------------------------------|
G||----------------------------------|---------------------------------|
D||----------------------------------|-------------------------------0-|
A||o---------------------------------|-------------------------0h1h2---|
E||--0-0---0---0---0---0---0-0-0-0---|-0-0---0---0---0---0---0---------|


  PM----------------------------|
  S S S S S S S S S S S S S S S S
e|------------------------------------|
B|------------------------------------|
G|------------------------------------|
D|------------------------------------|
A|------------------------------------|
E|-0-0---0---0---0---0---0-0-0-0------|


  PM------------|
                  |-3-|     |-3-|
  S S S S S S S S S S S S S S S S S S
e|-------------------------------------|
B|-------------------------------------|
G|-------------------------------------|
D|-------------------------------------|
A|-----------------0h1p0-----0h1p0-----|
E|-0-0---0---0---0-------3-3-------3-1-|


  PM------------------------------------------------------|
                                                            |-3-|
  S S S S S S S S S S S S S S S S   S S S S S S S S S S S S S S S E
e|---------------------------------|-----------------------------------|
B|---------------------------------|-----------------------------------|
G|---------------------------------|-----------------------------------|
D|---------------------------------|-------------------------------0---|
A|---------------------------------|-------------------------0h1h2-----|
E|-0-0---0---0---0---0---0-0-0-0---|-0-0---0---0---0---0---0-----------|


  N.C.(E)
  PM----------------------------|
  S S S S S S S S S S S S S S S S
e|---------------------------------|
B|---------------------------------|
G|---------------------------------|
D|---------------------------------|
A|---------------------------------|
E|-0-0---0---0---0---0---0-0-0-0-0-|


                                        G5                    G#5
    PM----------|                       PM------------------|
                  |-3-|     |-3-|
  S S S S S S S S S S S S S S S S S S   S S S S S S S S S S S S S E.
e|-------------------------------------|------------------------------|
B|-------------------------------------|------------------------------|
G|-------------------------------------|------------------------------|
D|-------------------------------------|------------------------------|
A|-----------------0h1p0-----0h1p0-----|-5-5-5-5-5-5-5-5-5-5-5-6---6--|
E|-0-0---0---0---0-------3-3-------3-1-|-3-3-3-3-3-3-3-3-3-3-3-4---4--|


  G5                A#5A5G#5 N.C.(E)
  PM--------------|          PM-------------------------------
  S S S S S S S S S E. E E   S S S S S S S S S S S S S S S S
e|--------------------------|---------------------------------|
B|--------------------------|---------------------------------|
G|--------------------------|---------------------------------|
D|--------------------------|---------------------------------|
A|-5-5-5-5-5-5-5-5-5-8--7-6-|---------------------------------|
E|-3-3-3-3-3-3-3-3-3-6--5-4-|-0-0---0---0---0---0---0-0-0-0---|


                        E5
 ---------------|
  S S S S S S S S S S S S Q
e|----------------------------||
B|----------------------------||
G|----------------------------||
D|----------------------------||
A|-----------------1-0---2----||
E|-0-0---0---0---0-----3-0----||


[Chorus 1 and 2]

  E5      A5
  PM--------------------|
  S S S S S S S S S S S S S S E
e|-------------------------------|
B|-------------------------------|
G|-------------------------------|
D|---------2---2---------------0-|
A|-2---2---0---0---1---0---1h2---|
E|-0-3-0-3---3---3---3---3-------|


  E5      A5                      E5      A5
  PM--------------------|         PM--------------------|
  S S S S S S S S S S S S S S E   S S S S S S S S S S S S S S E
e|-------------------------------|-------------------------------|
B|-------------------------------|-------------------------------|
G|-------------------------------|-------------------------------|
D|---------2---2---------------0-|---------2---2---------------0-|
A|-2---2---0---0---1---0---1h2---|-2---2---0---0---1---0---1h2---|
E|-0-3-0-3---3---3---3---3-------|-0-3-0-3---3---3---3---3-------|


  E5      A5            E5             A5
  PM------------|              PM--------------------|
  S S S S S S S S S S S S Q    S S S S S S S S S S S S S S E
e|----------------------------|-------------------------------|
B|----------------------------|-------------------------------|
G|----------------------------|-------------------------------|
D|---------2---2--------------|---------2---2---------------0-|
A|-2---2---0---0---1-0---2----|-2---2---0---0---1---0---1h2---|
E|-0-3-0-3---3---3-----3-0----|-0-3-0-3---3---3---3---3-------|


  E5      A5
  PM--------------------|
  S S S S S S S S S S S S S S E
e|--------------------------------|
B|--------------------------------|
G|--------------------------------|
D|---------2---2---------------0--|
A|-2---2---0---0---1---0---1h2----|
E|-0-3-0-3---3---3---3---3--------|


                                 1.
  E5      A5                      E5      A5            E5
  PM--------------------|         PM------------|
  S S S S S S S S S S S S S S E   S S S S S S S S S S S S Q
e|-------------------------------|----------------------------|
B|-------------------------------|----------------------------|
G|-------------------------------|----------------------------|
D|---------2---2---------------0-|---------2---2--------------|
A|-2---2---0---0---1---0---1h2---|-2---2---0---0---1-0---2----|
E|-0-3-0-3---3---3---3---3-------|-0-3-0-3---3---3-----3-0----|


  N.C.(E)
  Gtr I
  PM--------------------|
                          |-3-|
  S S S S S S S S S S S S S S S E
e|---------------------------------|
B|---------------------------------|
G|---------------------------------|
D|-------------------------------0-|
A|-------------------------0h1h2---|
E|-0-0---0---0---0---0---0---------|


  Gtrs I, II
  PM------------|                   PM--------------------|
                  |-3-|   |-3-|                             |-3-|
  S S S S S S S S S S S E S S S E   S S S S S S S S S S S S S S S E
e|---------------------------------|---------------------------------|
B|---------------------------------|---------------------------------|
G|---------------------------------|---------------------------------|
D|-----------------------0-------0-|-------------------------------0-|
A|-----------------0h1h2---0h1h2---|-------------------------0h1h2---|
E|-0-0---0---0---0-----------------|-0-0---0---0---0---0---0---------|


  PM------------|
                  |-3-|     |-3-|
  S S S S S S S S S S S S S S S S S S
e|---------------------------------------|
B|---------------------------------------|
G|---------------------------------------|
D|---------------------------------------|
A|-----------------0h1p0-----0h1p0-------|
E|-0-0---0---0---0-------3-3-------3-1---|


  PM--------------------|
                          |-3-|
  S S S S S S S S S S S S S S S E
e|---------------------------------|
B|---------------------------------|
G|---------------------------------|
D|-------------------------------0-|
A|-------------------------0h1h2---|
E|-0-0---0---0---0---0---0---------|


                                         2.
                                          E5      A5        G5 F#F5
  PM------------|                         PM------------|
                  |-3-|     |-3-|
  S S S S S S S S S S S S S S S S S S     S S S S S S S S S E. E E
e|--------------------------------------||----------------------------||
B|-------------------------------------o||----------------------------||
G|--------------------------------------||----------------------------||
D|--------------------------------------||---------2---2--------------||
A|-----------------0h1p0-----0h1p0-----o||-2---2---0---0-----5--4-3---||
E|-0-0---0---0---0-------3-3-------3-1--||-0-3-0-3---3---3---3--2-1---||


[Guitar solo]

       E5/B                        C                      A/C#
   Gtr III
       ~~                          ~~                       ~~~~
   Q   H           +Q      S S S S H.              +Q       H            +Q
e|-----------------------|-----------------------|-----------------------------|
B|-----------------------|-----------------------|-----------------------------|
G|-----------------------|-----------------------|-----------------------------|
D|-----------------------|-8---8---8-------------|-(8)\---/14-----------(14)\--|
A|-----7-----------(7)\--|---7---7---------------|-----------------------------|
E|-----------------------|-----------------------|-----------------------------|
|
| Gtrs I, II
| PM|                     PM--|                    PM--|
| E E E. +S  +H           E   E   E. +S  +H        E   E   E. +S  +H
e|-----------------------|-----------------------|-----------------------------|
B|-----------------------|-----------------------|-----------------------------|
G|-----------------------|---------0--(0)-(0)----|----------2--(2)-(2)---------|
D|-----2--(2)-(2)--------|---------2--(2)-(2)----|----------2--(2)-(2)---------|
A|-----2--(2)-(2)--------|-3---3---3--(3)-(3)----|--4---4---4--(4)-(4)---------|
E|-0-0-------------------|-----------------------|-----------------------------|


               D5            A#5A5
                      ~~~~~~~
    S  S  S  S  S  S  E  +Q      +Q
e|------------------------------------------------|
B|------------------------------------------------|
G|-15----15----15----15-(15)----(15)\-------------|
D|----14----14----14------------------------------|
A|------------------------------------------------|
E|------------------------------------------------|
|
|  PM---|
|  E     E     S  S  E   S  E.   E   S      +S
e|------------------------------------------------|
B|------------------------------------------------|
G|------------------------------------------------|
D|--------------7--7--7---------------------------|
A|--5-----5-----5--5--5------8----7---------------|
E|---------------------------6----5---3b3.5==(3)r-|


           E5/B
   PM---|             PM---|            PM---|            PM---|
   |--3--|  |--3---|  |--3--|  |--3--|  |--3--|  |--3--|  |--3--|  |--3--|
   S  S  S  S   S  S  S  S  S  S  S  S  S  S  S  S  S  S  S  S  S  S  S  S
e|--------------------------------------------------------------------------|
B|--------------------------------------------------------------------------|
G|--------------------------------------------------------11-12-15-11h12h15-|
D|--------------------------------------11-12-15-11h12h15-------------------|
A|--------------------11-12-15-11h12h15-------------------------------------|
E|-11-12-15-11h=12h15-------------------------------------------------------|
|
 |  E        H..
e|--------------------------------------------------------------------------|
B|--------------------------------------------------------------------------|
G|--------------------------------------------------------------------------|
D|-----------2--------------------------------------------------------------|
A|-----------2--------------------------------------------------------------|
E|--------------------------------------------------------------------------|


           C
                                                          ~~~~~~~~~~~~
   |--3--|  |--3---|  |--3--|              |--3--|  |--3--|
   S  S  S  S   S  S  S  S  S  T  T  T  T  S  S  S  S  S  S      +Q
e|--------------------11-12-15-12h15p12p11-15p12p11-15p12-15b18==(15)r---|
B|-11-12-15-11h=12h15----------------------------------------------------|
G|-----------------------------------------------------------------------|
D|-----------------------------------------------------------------------|
A|-----------------------------------------------------------------------|
E|-----------------------------------------------------------------------|
|
 |  E        H..
e|-----------------------------------------------------------------------|
B|-----------------------------------------------------------------------|
G|-----------0-----------------------------------------------------------|
D|-----------2-----------------------------------------------------------|
A|-----------3-----------------------------------------------------------|
E|-----------------------------------------------------------------------|


       A/C#
  |----3----|  |--3--| |--3--|
  E  E      E  S  S  S S  S  S  T  T  T T  T  T  T  T  T T  T  T  T  T  T  T
e|---12-----14-17p14p12---12-14-17p14p12---12-14-17p14p12---12-14-17p14p12-12-|
B|----------------------------------------------------------------------------|
G|----------------------------------------------------------------------------|
D|----------------------------------------------------------------------------|
A|----------------------------------------------------------------------------|
E|----------------------------------------------------------------------------|
|
 | E    H..
e|----------------------------------------------------------------------------|
B|----------------------------------------------------------------------------|
G|------2---------------------------------------------------------------------|
D|------2---------------------------------------------------------------------|
A|------4---------------------------------------------------------------------|
E|----------------------------------------------------------------------------|


             D5                            A#5               A5
  |---------7---------|  |-----6------|  |--------7--------|   |--------7--------|
  S  S  S  S    S  S  S  E   S  S  S  S  E     S  S  S  S  S  +E   S  S    S  S  S
e|---12h15h19p==15p12h15-20p=15p12h15p12--------------------------------------------|
B|---------------------------------------20p===15p12h15p12--------------------------|
G|---------------------------------------------------------20-(20)p15p12h==15p12----|
D|-------------------------------------------------------------------------------20-|
A|----------------------------------------------------------------------------------|
E|----------------------------------------------------------------------------------|
|
 | E          E          +Q               S E.                  E        E
e|----------------------------------------------------------------------------------|
B|----------------------------------------------------------------------------------|
G|----------------------------------------------------------------------------------|
D|------------7----------(7)--------------------------------------------------------|
A|------------5----------(5)----------------8-------------------7-------------------|
E|------------------------------------------6-------------------5--------3----------|


               E5/B                                     C
                        ~~~~                             ~~~
    S  S  S  S  S   S  +Q           E Q      S  S  S  S  H            +Q
e|----------------------------------------|---------------------------------|
B|----------------------------------------|---------------------------------|
G|----------------------------------------|-15----15----15-----------(15)\--|
D|-20p15p12h15p12--14-(14)---------14s5/--|----14----14---------------------|
A|----------------------------------------|---------------------------------|
E|----------------------------------------|---------------------------------|
|
|  PM---|                                   PM---|
|  E     E     E.         +S  +H            E     E     E. +S  +H
e|----------------------------------------|---------------------------------|
B|----------------------------------------|---------------------------------|
G|----------------------------------------|--------------0--(0)-(0)---------|
D|--------------2----------(2)-(2)--------|--------------2--(2)-(2)---------|
A|--------------2----------(2)-(2)--------|--3-----3-----3--(3)-(3)---------|
E|--0-----0-------------------------------|---------------------------------|


                        A/C#
                                               ~~~~
   E  a      S  +S       +Q        S   a      +E.  +E   E
e|--------------------------------15-----------------------|
B|---15b17==15r(15)b17==(15)r---------15b17==(15)-(15)rS8/-|
G|---------------------------------------------------------|
D|---------------------------------------------------------|
A|---------------------------------------------------------|
E|---------------------------------------------------------|
|
| PM-------|
| E         E            E.  +S  +H
e|---------------------------------------------------------|
B|---------------------------------------------------------|
G|------------------------2---(2)-(2)----------------------|
D|------------------------2---(2)-(2)----------------------|
A|-4---------4------------4---(4)-(4)----------------------|
E|---------------------------------------------------------|


             D5                A#5       A5
     E  S  S  S  S  E      +E      +E    E  E
e|-----18----18----18b21==(18)----(18)r\----------------|
B|-/17----17----17--------------------------------------|
G|---------------------------------------7s14-----------|
D|------------------------------------------------------|
A|------------------------------------------------------|
E|------------------------------------------------------|
|
 |   PM|
 |   E  E     S  S  E       S  E.        E  S      +S
e|------------------------------------------------------|
B|------------------------------------------------------|
G|------------------------------------------------------|
D|------------7--7--7-----------------------------------|
A|---5--5-----5--5--5----------8---------7--------------|
E|-----------------------------6---------5--3b3.5==(3)r-|


           E5/B
   |--3--|  |---3---|  |--3--|  |--3--|  |--3--|  |--3--|  |--3--|  |--3--|
   S  S  S  S    S  S  S  S  S  S  S  S  S  S  S  S  S  S  S  S  S  S  S  S
e|-----------------------------------------------------------------------------|
B|-12------------------12----------------12----------------12------------------|
G|----15-14-12---14-15----15-14-12-14-15----15-14-12-14-15----15-14-12-14-15---|
D|-----------------------------------------------------------------------------|
A|-----------------------------------------------------------------------------|
E|-----------------------------------------------------------------------------|
|
 |  E        H..
e|-----------------------------------------------------------------------------|
B|-----------------------------------------------------------------------------|
G|-----------------------------------------------------------------------------|
D|-----------2-----------------------------------------------------------------|
A|-----------2-----------------------------------------------------------------|
E|-----------------------------------------------------------------------------|


           C                                        
                                   ~~               
    E.          S  +E        E  a  Q   E      +E    
e|------------------------------------14b16==(14)r-|
B|-12b12.5-----12-(12)b12.5------------------------|
G|-12b12.5-----12-(12)b12.5------------------------|
D|--------------------------14-12h14---------------|
A|-------------------------------------------------|
E|-------------------------------------------------|
|
 |  E      H..                                      
e|-------------------------------------------------|
B|-------------------------------------------------|
G|---------0---------------------------------------|
D|---------2---------------------------------------|
A|---------3---------------------------------------|
E|-------------------------------------------------|

         A/C#                                                                              
                                                                                       ~~~~
    S  S  S      +S    S  S  S      +S    S  S  a      +S    a  S      +S   S  a      +E   
e|-12-14--------------12-14--------------12-14--------------12----------------------------|
B|-------15b17==(15)r-------15b17==(15)r-------15b17==(15)r----14pb15r(14)p12-------------|
G|----------------------------------------------------------------------------14b16==(14)-|
D|----------------------------------------------------------------------------------------|
A|----------------------------------------------------------------------------------------|
E|----------------------------------------------------------------------------------------|
|                                                                                         
 |  E     H..                                                                              
e|----------------------------------------------------------------------------------------|
B|----------------------------------------------------------------------------------------|
G|--------2-------------------------------------------------------------------------------|
D|--------2-------------------------------------------------------------------------------|
A|--------4-------------------------------------------------------------------------------|
E|----------------------------------------------------------------------------------------|

        D5                     A#5          A5
  ~~~~~~~~~~~~~
    +E   +E     S   S  S  S  S  S   S  a  S  S  a  S  S  a  S
e|--------------------15-----------19-------20-------21-------||
B|-------------11s=12----12-12s15-----15s17----17s18----18s19-||
G|-(14)-(14)r\------------------------------------------------||
D|------------------------------------------------------------||
A|------------------------------------------------------------||
E|------------------------------------------------------------||
|
 |   E    E    +Q            S  E.           E        E
e|------------------------------------------------------------||
B|------------------------------------------------------------||
G|------------------------------------------------------------||
D|--------7----(7)--------------------------------------------||
A|--------5----(5)--------------8------------7----------------||
E|------------------------------6------------5--------3-------||


[Bridge]

         N.C.
                            ~~~~~~~~~~~~~~
    a     +Q        a      +Q        +Q          +Q
e|-22b24-(22)------22b24==(22)------(22)\-------(22)r\-----|
B|---------------------------------------------------------|
G|---------------------------------------------------------|
D|---------------------------------------------------------|
A|---------------------------------------------------------|
E|---------------------------------------------------------|
|
 |             PM|              PM|          ~~~       PM|
 |         S S S S          S S S S   S   S  Q         S S
e|---------------------------------------------------------|
B|---------------------------------------------------------|
G|---------------------------------------------------------|
D|------------------------------------------[5]------------|
A|---------7p5--------------7p5-------7p==5----------------|
E|-------------0-0--------------0-0--------------------0-0-|
|
 | Gtr IV
 |             PM|              PM|          ~~~       PM|
 |         S S S S          S S S S   S   S  Q         S S
e|---------------------------------------------------------|
B|---------------------------------------------------------|
G|---------------------------------------------------------|
D|-------------------------------------------5-------------|
A|---------7p5--------------7p5-------7p==5----------------|
E|-------------0-0--------------0-0--------------------0-0-|


   W                              W
e|------------------------------|---------------------------------|
B|------------------------------|---------------------------------|
G|------------------------------|---------------------------------|
D|------------------------------|---------------------------------|
A|------------------------------|---------------------------------|
E|------------------------------|---------------------------------|
|
 |     PM|     PM|      ~~~ PM|       PM|     PM|      ~~~  PM|
 | S S S S S S S S S S  Q   S S   S S S S S S S S S S  Q    S  S
e|------------------------------|---------------------------------|
B|------------------------------|---------------------------------|
G|------------------------------|---------------------------------|
D|---------------------[7]------|---------------------[5]---------|
A|-7p5-----7p5-----7p5----------|-7p5-----7p5-----7p5-------------|
E|-----0-0-----0-0----------0-0-|-----0-0-----0-0-----------0--0--|
|
 |     PM|     PM|      ~~~ PM|       PM|     PM|      ~~~  PM|
 | S S S S S S S S S S  Q   S S   S S S S S S S S S S  Q    S  S
e|------------------------------|---------------------------------|
B|------------------------------|---------------------------------|
G|----------------------2-------|---------------------------------|
D|------------------------------|----------------------5---12-12--|
A|-7p5-----7p5-----7p5----------|-7p5-----7p5-----7p5-------------|
E|-----0-0-----0-0----------0-0-|-----0-0-----0-0-----------------|


    S  S  S  S  S  S  S S  S S S S S S E
e|---------------------------------------|
B|---------------------------------------|
G|-14p12----12s11----11s9----9s7---7s6---|
D|-------14-------12------11-----9-----7-|
A|---------------------------------------|
E|---------------------------------------|
|
 |  S  S  S  S  S  S  S S  S S S S S S E
e|---------------------------------------|
B|---------------------------------------|
G|---------------------------------------|
D|---------------------------------------|
A|-12p10----10s=9-----9s7----7s5---5s4---|
E|-------12-------10-------9-----7-----5-|


       PM|     PM|      ~~~ PM|       PM|     PM|      ~~~ PM|
   S S S S S S S S S S  Q   S S   S S S S S S S S S S  Q   S S
e|------------------------------|--------------------------------|
B|------------------------------|--------------------------------|
G|------------------------------|--------------------------------|
D|---------------------[5]------|---------------------[7]--------|
A|-7p5-----7p5-----7p5----------|-7p5-----7p5-----7p5------------|
E|-----0-0-----0-0----------0-0-|-----0-0-----0-0----------0-0---|
|
 |     PM|     PM|      ~~~ PM|       PM|     PM|      ~~~ PM|
 | S S S S S S S S S S  Q   S S   S S S S S S S S S S  Q   S S
e|------------------------------|--------------------------------|
B|------------------------------|--------------------------------|
G|------------------------------|--------------------------------|
D|----------------------5-------|----------------------7---------|
A|-7p5-----7p5-----7p5----------|-7p5-----7p5-----7p5------------|
E|-----0-0-----0-0----------0-0-|-----0-0-----0-0----------0-0---|


                         To Coda
       PM|     PM|      ~~~ PM|
   S S S S S S S S S S  Q   S S    S  S  S  S  S  S  S  S  S  S  S  S  S S  E
e|------------------------------|-17p15----15s14----14s12----12s10----10s9----|
B|------------------------------|-------17-------15-------14-------12------10-|
G|------------------------------|---------------------------------------------|
D|---------------------[5]------|---------------------------------------------|
A|-7p5-----7p5-----7p5----------|---------------------------------------------|
E|-----0-0-----0-0----------0-0-|---------------------------------------------|
|
 |     PM|     PM|      ~~~ PM|
 | S S S S S S S S S S  Q   S S    S  S  S  S  S  S  S  S  S  S  S  S  S S  E
e|--------------------------0-0-|---------------------------------------------|
B|------------------------------|---------------------------------------------|
G|------------------------------|-14p12----12s11----11s=9-----9s=7-----7s6----|
D|----------------------5-------|-------14-------12-------11--------9-------7-|
A|-7p5-----7p5-----7p5----------|---------------------------------------------|
E|-----0-0-----0-0--------------|---------------------------------------------|
|
 | Gtr IV
 | W                               S  S  S  S  S  S  S  S  S  S  S  S  S S  E
e|------------------------------|---------------------------------------------|
B|------------------------------|---------------------------------------------|
G|------------------------------|---------------------------------------------|
D|------------------------------|---------------------------------------------|
A|------------------------------|-12p10----10s=9-----9s=7-----7s=5-----5s4----|
E|------------------------------|-------12-------10--------9--------7-------5-|


   PM--------------------------------|              PM------------------------------|
   S   S  S  S  S   S  S  S  S  S  S  S  S  S  E    S  S  S  S  S  S  S  S  S  S  S  S  S  S  E
e|------------------------------------------------|----------------------------------------------|
B|------------------------------------------------|----------------------------------------------|
G|------------------------------------------------|----------------------------------------------|
D|---------------------------------------------12-|-------------------------------------------12-|
A|--------------12-----12----13----12----13h14----|-------------12----12----13----12----13h14----|
E|-12--15-12-15-----15----15----15----15----------|-12-15-12-15----15----15----15----15----------|
|
 |  ~~~
 | +Q            H.                                  W
e|------------------------------------------------|----------------------------------------------|
B|------------------------------------------------|----------------------------------------------|
G|------------------------------------------------|----------------------------------------------|
D|-(7)--------------------------------------------|----------------------------------------------|
A|------------------------------------------------|----------------------------------------------|
E|------------------------------------------------|----------------------------------------------|


   PM------------------------------|              PM------------------|
   S  S  S  S  S  S  S  S  S  S  S  S  S  S  E    S  S  S  S  S  S  S  S  S  S  S  S  +Q
e|----------------------------------------------|----------------------------------------------||
B|----------------------------------------------|----------------------------------------------||
G|----------------------------------------------|----------------------------------------------||
D|-------------------------------------------12-|----------------------------------------------||
A|-------------12----12----13----12----13h14----|-------------12----12----13-12-10-------------||
E|-12-15-12-15----15----15----15----15----------|-12-15-12-15----15----15----------12-(12)\----||
|
 |  W                                              H                       S  S  S  S  +Q
e|----------------------------------------------|----------------------------------------------||
B|----------------------------------------------|----------------------------------------------||
G|----------------------------------------------|----------------------------------------------||
D|----------------------------------------------|----------------------------------------------||
A|----------------------------------------------|-------------------------13-12-10-------------||
E|----------------------------------------------|----------------------------------12-(12)\----||


[Chorus 3]

  E5      A5
  Gtrs I, II
  PM--------------------|
  S S S S S S S S S S S S S S E
e|-------------------------------|
B|-------------------------------|
G|-------------------------------|
D|---------2---2---------------0-|
A|-2---2---0---0---1---0---1h2---|
E|-0-3-0-3---3---3---3---3-------|


  E5      A5                      E5      A5
  PM--------------------|         PM--------------------|
  S S S S S S S S S S S S S S E   S S S S S S S S S S S S S S E
e|-------------------------------|-------------------------------|
B|-------------------------------|-------------------------------|
G|-------------------------------|-------------------------------|
D|---------2---2---------------0-|---------2---2---------------0-|
A|-2---2---0---0---1---0---1h2---|-2---2---0---0---1---0---1h2---|
E|-0-3-0-3---3---3---3---3-------|-0-3-0-3---3---3---3---3-------|


  E5      A5            E5     E5      A5
  PM------------|              PM--------------------|
  S S S S S S S S S S S S Q    S S S S S S S S S S S S S S E
e|----------------------------|-------------------------------|
B|----------------------------|-------------------------------|
G|----------------------------|-------------------------------|
D|---------2---2--------------|---------2---2---------------0-|
A|-2---2---0---0---1-0---2----|-2---2---0---0---1---0---1h2---|
E|-0-3-0-3---3---3-----3-0----|-0-3-0-3---3---3---3---3-------|


  E5      A5
  PM--------------------|
  S S S S S S S S S S S S S S E
e|--------------------------------|
B|--------------------------------|
G|--------------------------------|
D|---------2---2---------------0--|
A|-2---2---0---0---1---0---1h2----|
E|-0-3-0-3---3---3---3---3--------|


  E5      A5                      E5      A5            E5
  PM--------------------|         PM------------|
  S S S S S S S S S S S S S S E   S S S S S S S S S S S S Q
e|-------------------------------|----------------------------|
B|-------------------------------|----------------------------|
G|-------------------------------|----------------------------|
D|---------2---2---------------0-|---------2---2--------------|
A|-2---2---0---0---1---0---1h2---|-2---2---0---0---1-0---2----|
E|-0-3-0-3---3---3---3---3-------|-0-3-0-3---3---3-----3-0----|


                                                D.S. al Coda
  E5      A5                      E5      A5            E5
  PM--------------------|         PM------------|
  S S S S S S S S S S S S S S E   S S S S S S S S S S S S Q
e|-------------------------------|----------------------------||
B|-------------------------------|----------------------------||
G|-------------------------------|----------------------------||
D|---------2---2---------------0-|---------2---2--------------||
A|-2---2---0---0---1---0---1h2---|-2---2---0---0---1-0---2----||
E|-0-3-0-3---3---3---3---3-------|-0-3-0-3---3---3-----3-0----||


   &
   Gtrs I, II
    S  S  S  S  S  S  S  S  S  S  S  S  S S  E
e|-17p15----15s14----14s12----12s10----10s9----|
B|-------17-------15-------14-------12------10-|
G|---------------------------------------------|
D|---------------------------------------------|
A|---------------------------------------------|
E|---------------------------------------------|
|
 | Gtr III
 |  S  S  S  S  S  S  S  S  S  S  S  S  S S  E
e|---------------------------------------------|
B|---------------------------------------------|
G|-14p12----12s11----11s=9-----9s=7-----7s6----|
D|-------14-------12-------11--------9-------7-|
A|---------------------------------------------|
E|---------------------------------------------|
|
 | Gtr IV
 |  S  S  S  S  S  S  S  S  S  S  S  S  S S  E
e|---------------------------------------------|
B|---------------------------------------------|
G|---------------------------------------------|
D|---------------------------------------------|
A|-12p10----10s=9-----9s=7-----7s=5-----5s4----|
E|-------12-------10--------9--------7-------5-|


                              E5
  5/4
                  |-3-|
   S S S S S S Q  S S S S S S E E.
e|---------------------------------*|
B|---------------------------------*|
G|---------------------------------*|
D|----------------------------2----*|
A|----------------0h1p0-------2----*|
E|-0-0-0-0---0----------3---3-0----*|
|
 |                |-3-|
 | S S S S S S Q  S S S S S S E E.
e|---------------------------------*|
B|---------------------------------*|
G|---------------------------------*|
D|----------------------------2----*|
A|----------------0h1p0-------2----*|
E|-7-0-0-0---0----------3---3-0----*|
|
 | W
e|---------------------------------*|
B|---------------------------------*|
G|---------------------------------*|
D|---------------------------------*|
A|---------------------------------*|
E|---------------------------------*|


Duration Legend
---------------
W - whole; H - half; Q - quarter; E - 8th; S - 16th; T - 32nd; X - 64th; a - acciaccatura
+ - note tied to previous; . - note dotted; .. - note double dotted
Uncapitalized letters represent notes that are staccato (1/2 duration)
Irregular groupings are notated above the duration line
Duration letters will always appear directly above the note/fret number it represents the
duration for.  Duration letters with no fret number below them represent rests.  Multi-
bar rests are notated in the form Wxn, where n is the number of bars to rest for.  Low
melody durations appear below the staff



************************************

| (n)  Ghost note
| h    Hammer-on
| p    Pull-off
| b    Bend
| pb   Pre-bend
| /    Slide up
| s    Slap 

************************************
Suggest correction new What's this?
You can suggest a correction to this tab. Community and Mods will review your correction and vote to approve or reject it.
comments
print report bad tab
99 comments total. Showing first comments.
+1 reply
stumaster18 1,574 wrote on September 20 2005, 12:00 am

nice work!! omg

+1 reply
abigape 91 wrote on October 7 2005, 09:08 am

An incredible song deserves an incredible tab.
thank you sir

+3 reply
metaljunkie22 647 wrote on January 15 2006, 10:53 am

finally a tab for this song that doesnt suck

guest
You may want to rate the tab now too:
select rating
Please do not post tabs as comments. Select "correction" instead!