Oops, an error
Loading. Please wait.

Domination Tab

version 2
version 2
137,891 views 255 this week
36 commentsread comments
1 2 3 4 5
excellent!
x 54
add to favorites
launch autoscroll
font size
0
reset
how to read this tab
guitar tuner
Autoscroll
slow
fast
+/-
esc
set tempo
stop
Help us to improve Ultimate-Guitar.com Take our survey!
×
Author
Difficulty
advanced
This is the song Domination, by Pantera

e|---------------------------------------------------------------------------|2x
B|---------------------------------------------------------------------------|
G|---------------------------------------------------------------------------|
D|-------9-\--7---9--------9--\--7---9-------9--\--7---9---------------------|
A|-------7-\--5---7--------7--\--5---7-------7--\--5---7-----5--/--7----5----|
E|---0-----------------0------------------0---------------0--3--/--5----3----|
     PM                PM                 PM                PM
e|---------------------------------------------------------------------------|2x
B|---------------------------------------------------------------------------|
G|---------------------------------------------------------------------------|
D|-------9-\--7---9---------9--\--7---9------9--\--7---9---------------------|
A|-------7-\--5---7---------7--\--5---7------7--\--5---7-----5--\--7---5-----|
E|--000---------------000---------------000-------------000--3--\--5---3-----|
    PM                PM                PM                PM
e|---------------------------------------------------------------------------|2x
B|---------------------------------------------------------------------------|
G|---------------------------------------------------------------------------|
D|-------9-\--7---9--------9--\--7---9-------9--\--7---9---------------------|
A|-------7-\--5---7--------7--\--5---7-------7--\--5---7-----5--/--7----5----|
E|---0-----------------0------------------0---------------0--3--/--5----3----|
     PM                PM                 PM                PM

e|-------------------------------------------------------------------------|
B|-------------------------------------------------------------------------|
G|-------------------------------------------------------------------------|
D|-------9-\--7---9---------9--\--7---9------9--\--7---9-------------------|
A|-------7-\--5---7---------7--\--5---7------7--\--5---7-----5--\--7---5---|
E|--000---------------000---------------000-------------000--3--\--5---3---|
    PM                PM                PM                PM

e|-------------------------------------------------------------------------|
B|-------------------------------------------------------------------------|
G|-------------------------------------------------------------------------|
D|-------9-\--7---9---------9--\--7---9------444--555--666--7--------------|
A|-------7-\--5---7---------7--\--5---7------222--333--444--5--------------|
E|--000---------------000--------------------------------------------------|
    PM                 PM                     |      PM    |
e|-------------------------------------------------------------------------|
B|-------------------------------------------------------------------------|
G|-------------------------------------------------------------------------|
D|-------------------------------------------------------------------------|
A|-------2---------2---------2---------------------------------------------|
E|--0000-0----0000-0----0000-0------77---66---55---33---2---1--------------|
     PM        PM        PM        |            PM           |
e|-------------------------------------------|
B|-------------------------------------------|
G|-------------------------------------------|
D|-------------------------------------------|      Double Bass Action
A|-------2---------2---------2-----------2---|
E|--0000-0----0000-0----0000-0------0000-0---|
         PM        PM        PM          PM

e|-------------------------------------------------------------------------|
B|-------------------------------------------------------------------------|
G|-------------------------------------------------------------------------|
D|-------------------------------------------------------------------------|
A|-------2---------2---------2---------------------------------------------|
E|--0000-0----0000-0----0000-0------77---66---55---33---2---1--------------|
     PM        PM        PM        |            PM           |
e|-------------------------------------------------------------------------|
B|-------------------------------------------------------------------------|
G|-------------------------------------------------------------------------|
D|-------------------------------------------------------------------------|
A|-------2---------2---------2-----------2---------------------------------|
E|--0000-0----0000-0----0000-0------0000-0--------0000-6---00-6------------|
     PM        PM        PM          PM            PM      PM
e|-------------------------------------------------------------------------|
B|-------------------------------------------------------------------------|
G|-------------------------------------------------------------------------|
D|-------------------------------------------------------------------------|
A|-------2---------2---------2---------------------------------------------|
E|--0000-0----0000-0----0000-0------77---66---55---33---2---1--------------|
     PM        PM        PM        |            PM           |
e|-------------------------------------------------------------------------|
B|-------------------------------------------------------------------------|
G|-------------------------------------------------------------------------|
D|--5-----------7--------------12-----------10----------12-----------------|
A|--3-----5-----5--------------10-----------8---------10---9--8--7--6-5-4--|
E|--------3------------0000--0------0000--0-----0000--0----7--6--5--4-3-2--|
                      |  PM  |     |  PM   |   |   PM  |    |      PM      |
e|-------------------------------------------------------------------------|
B|-------------------------------------------------------------------------|
G|-------------------------------------------------------------------------|
D|--5--------------------------12-----------10--------7----2--4--5--7-9-10-|
A|--3-----5-----3--------------10-----------8---------5----0--2--3--5-7-8--|
E|--------3-----1------0000--0------0000--0-----0000--0--------------------|
                      |  PM  |     |  PM   |   |   PM  |    |      PM      |
e|---------------------------------------------------------------------------|2x
B|---------------------------------------------------------------------------|
G|---------------------------------------------------------------------------|
D|-------9-\--7---9--------9--\--7---9-------9--\--7---9---------------------|
A|-------7-\--5---7--------7--\--5---7-------7--\--5---7-----5--/--7----5----|
E|---0-----------------0------------------0---------------0--3--/--5----3----|
     PM                PM                 PM                PM
e|-------------------------------------------------------------------------|
B|-------------------------------------------------------------------------|
G|-------------------------------------------------------------------------|
D|-------9-\--7---9---------9--\--7---9------9--\--7---9-------------------|
A|-------7-\--5---7---------7--\--5---7------7--\--5---7-----5--\--7---5---|
E|--000---------------000---------------000-------------000--3--\--5---3---|
    PM                PM                PM                PM
e|-------------------------------------------------------------------------|
B|-------------------------------------------------------------------------|
G|-------------------------------------------------------------------------|
D|-------9-\--7---9---------9--\--7---9------9--\--7---9--444--555--666--7-|
A|-------7-\--5---7---------7--\--5---7------7--\--5---7--222--333--444--5-|
E|--000---------------000---------------000--------------------------------|
    PM                PM                PM                 |      PM     |

e|-------------------------------------------------------------------------|
B|-------------------------------------------------------------------------|
G|-------------------------------------------------------------------------|
D|-------------------------------------------------------------------------|
A|-------2---------2---------2---------------------------------------------|
E|--0000-0----0000-0----0000-0------77---66---55---33---2---1--------------|
     PM        PM        PM        |            PM           |
e|-------------------------------------------|
B|-------------------------------------------|
G|-------------------------------------------|
D|-------------------------------------------|      Double Bass Action
A|-------2---------2---------2-----------2---|
E|--0000-0----0000-0----0000-0------0000-0---|
         PM        PM        PM          PM
e|-------------------------------------------------------------------------|
B|-------------------------------------------------------------------------|
G|-------------------------------------------------------------------------|
D|-------------------------------------------------------------------------|
A|-------2---------2---------2---------------------------------------------|
E|--0000-0----0000-0----0000-0------77---66---55---33---2---1--------------|
     PM        PM        PM        |            PM           |
e|-------------------------------------------------------------------------|
B|-------------------------------------------------------------------------|
G|-------------------------------------------------------------------------|
D|-------------------------------------------------------------------------|
A|-------2---------2---------2-----------2---------------------------------|
E|--0000-0----0000-0----0000-0------0000-0--------0000-6---00-6------------|
     PM        PM        PM          PM            PM     PM
e|-------------------------------------------------------------------------|
B|-------------------------------------------------------------------------|
G|-------------------------------------------------------------------------|
D|-------------------------------------------------------------------------|
A|-------2---------2---------2---------------------------------------------|
E|--0000-0----0000-0----0000-0------77---66---55---33---2---1--------------|
     PM        PM        PM        |            PM           |
e|-------------------------------------------------------------------------|
B|-------------------------------------------------------------------------|
G|-------------------------------------------------------------------------|
D|--5-----------7--------------12-----------10---------12------------------|
A|--3-----5-----5--------------10-----------8----------10--9--8--7--6-5-4--|
E|--------3------------0000--0------0000--0-----0000--0----7--6--5--4-3-2--|
                      |  PM  |     |  PM   |   |   PM  |    |      PM      |
e|-------------------------------------------------------------------------|
B|-------------------------------------------------------------------------|
G|-------------------------------------------------------------------------|
D|--5--------------------------12-----------10----------7--2--4--5--7-9-10-|
A|--3-----5-----3--------------10-----------8-----------5--0--2--3--5-7-8--|
E|--------3-----1------0000--0------0000--0-----0000--0--------------------|
                      |  PM  |     |  PM   |   |   PM  |    |      PM   |
e|---------------------------------------------------------------------------|2x
B|---------------------------------------------------------------------------|
G|---------------------------------------------------------------------------|
D|-------9-\--7---9--------9--\--7---9-------9--\--7---9---------------------|
A|-------7-\--5---7--------7--\--5---7-------7--\--5---7-----5--/--7----5----|
E|---0-----------------0------------------0---------------0--3--/--5----3----|
     PM                PM                 PM                PM
e|-------------------------------------------------------------------------|
B|-------------------------------------------------------------------------|
G|-------------------------------------------------------------------------|
D|-------9-\--7---9---------9--\--7---9------9--\--7---9-------------------|
A|-------7-\--5---7---------7--\--5---7------7--\--5---7-----5--\--7---5---|
E|--000---------------000---------------000-------------000--3--\--5---3---|
    PM                PM                PM                PM
e|-------------------------------------------------------------------------|
B|-------------------------------------------------------------------------|
G|-------------------------------------------------------------------------|
D|-------9-\--7---9---------9--\--7---9------9--\--7---9--444--555--666--7-|
A|-------7-\--5---7---------7--\--5---7------7--\--5---7--222--333--444--5-|
E|--000---------------000---------------000--------------------------------|
    PM                PM                PM                 |      PM     |
E|------------------------------------------------------------------------|
B|------------------------------------------------------------------------|
G|------------------------------------------------------------------------|
D|----7--/w/--------------9-------------9------------9---------9----------|
A|----5--/w/--------------7-------------7------------7------------7-------|
E|------------------0000----00----0000----00---0000----00---0000----00----|
                     PM     PM     PM     PM    PM     PM    PM     PM
e|------------------------------------------------------------------------|
B|---------------------------------------------------------------12-------|
G|---------------------------------------------------------------13-/B/---|
D|---12--------10---------4----------12-------10--------7-----------------|
A|---10--------8----------2----------10-------8---------5-----------------|
E|------------------------------------------------------------------------|


[Solo]

e|-13p12-13--16--13p12-13p12----12-13p12-13p12----12----------------------|
B|---------------------------15-------------15----15p13p12----13p12---12--|
G|---------------------------------------------------------14-------14--13|
D|------------------------------------------------------------------------|
A|------------------------------------------------------------------------|
E|------------------------------------------------------------------------|

e|------------------------------------------------------------------------|
B|------------------------------------------------------------------------|
G|----9-~------------9-10-~---------------------------------------12h15h18|
D|--------------9-10----------------------12h15h18--------12h15h18--------|
A|-----------------------------------12h15h18-----12h15h18----------------|
E|-0-------0-----------------12h15h18-------------------------------------|
   PM      PM
e|-----------------12h15h18p15p12h15-12h15h19p15p12h15-|22-22-22-22-18-15---|
B|12h15h18p15p12h15------------------------------------|--------------------|
G|-----------------------------------------------------|-------(4x)---------|
D|-----------------------------------------------------|--------------------|
A|-----------------------------------------------------|--------------------|
E|-----------------------------------------------------|--------------------|
e|-21-21-21-21-18-15--|4x  e|--22B--22B-22B-~---20b-~-----------------------|
B|--------------------|    B|-----------------------------------------------|
G|--------------------|    G|-----------------------------------------------|
D|--------------------|    D|-----------------------------------------------|
A|--------------------|    A|-----------------------------------------------|
E|--------------------|    E|-----------------------------------------------|

e|-19-20-17-19----17-------------------------------------17.16.15.14.--|
B|-------------20----19-20-17-~--19-20-17-19-20-17-19-~----------------|
G|---------------------------------------------------------------------|
D|---------------------------------------------------------------------|
A|---------------------------------------------------------------------|
E|---------------------------------------------------------------------|

e|-15p14p13-14p13p12----12-15b-12-----------------------------------------|
B|-------------------15-----------15-17-~---------------------------------|
G|--------------------------------------------------------0---------------|
D|---------------------------------------------9B--------------0----------|
A|----------------------------------------------------------------3B------|
E|------------------------------------------------------------------------|
   Very Fast Part                                    (bar bends)
e|-----------------------------------------------------------------------|
B|--------------------------78107810|8101181011|121415121415|141517141517|
G|--------------------579579---------------------------------------------|
D|-------457457|579579---------------------------------------------------|
A|-357357----------------------------------------------------------------|
E|-----------------------------------------------------------------------|

e|------------151719151719|171920171920|192022192022--22B--22B-----------|
B|151719151719---------------------------------------------22B-----------|
G|-----------------------------------------------------------------------|
D|-----------------------------------------------------------------------|
A|-----------------------------------------------------------------------|
E|-----------------------------------------------------------------------|

e|-------------------------------------------------------------------------|8x
B|-------------------------------------------------------------------------|
G|----------------------------(All PM)-------------------------------------|
D|-------------------------------------------------------------------------|
A|-2-2-2--2-2-2--2-2-2--2-2-2---------2-2-2--2-2-2--2-2-2--2-2-2-----------|
E|-0-0-0--0-0-0--0-0-0--0-0-0---------0-0-0--0-0-0--0-0-0--0-0-0-----------|
After 4x of this^ End Solo
e|-17131213-|-16131213-|-17131213-|-16131213-|-16161312-17171413-18181514-|
B|----------|----------|----------|----------|----------------------------|
G|----8x----|----8x----|----8x----|----8x----|----------------------------|
D|----------|----------|----------|----------|----------------------------|
A|----------|----------|----------|----------|----------------------------|
E|----------|----------|----------|----------|----------------------------|

e|-19191615-20201716-21211817-22B-22B-|
B|------------------------------------|
G|------------------------------------|
D|------------------------------------|
A|------------------------------------|
E|------------------------------------|

e|------------------------------------------------------------------------|
B|------------------------------------------------------------------------|
G|------------------------------------------------------------------------|
D|------------------------------------------------------------------------|
A|-4-4--4-4--4-4--4-4--4-4--4-4--4-4--4-4--2-2-2--2-2-2--2-2-2------------|
E|-2-2--2-2--2-2--2-2--2-2--2-2--2-2--2-2--0-0-0--0-0-0--0-0-0------------|

e|------------------------------------------------------------------------|
B|------------------------------------------------------------------------|
G|------------------------------------------------------------------------|
D|------------------------------------------------------------------------|
A|-4-4--4-4--4-4--4-4--4-4--4-4--4-4--4/5--2-2-2--2-2-2--2-2-2------------|
E|-2-2--2-2--2-2--2-2--2-2--2-2--2-2--2/3--0-0-0--0-0-0--0-0-0------------|

e|------------------------------------------------------------------------|
B|------------------------------------------------------------------------|
G|------------------------------------------------------------------------|
D|------------------------------------------------------------------------|
A|-4-4--4-4--4-4--4-4--4-4--4-4--4-4--4-4--2-2-2--2-2-2--2-2-2------------|
E|-2-2--2-2--2-2--2-2--2-2--2-2--2-2--2-2--0-0-0--0-0-0--0-0-0------------|

e|------------------------------------------------------------------------|
B|------------------------------------------------------------------------|
G|------------------------------------------------------------------------|
D|------------------------------------------------------------------------|
A|-4-4--4-4--4-4--4-4--4-4--4-4--4-4--4/5--2-2-2--2-2-2--2-2-2------------|
E|-2-2--2-2--2-2--2-2--2-2--2-2--2-2--2/3--0-0-0--0-0-0--0-0-0------------|

************************************

| x  Dead note
| h  Hammer-on
| p  Pull-off
| b  Bend
| /  Slide up
| \  Slide down
| ~  Vibrato

************************************
Suggest correction
comments
print report bad tab
36 comments total. Showing first comments. show 1 bad comment
+12 reply
franksciante 10 wrote on August 9 2006, 10:26 am

the main riff and outro arent completely right

+4 reply
False_God 789 wrote on August 28 2006, 02:38 pm

No he's right it eadgbe

guest
You may want to rate the tab now too:
select rating
Wanna post a correction for this tab? Suggest correction