Oops, an error
Loading. Please wait.

Five Minutes Alone Tab

version 1
version 1

Whole song

Interactive

46,836 views 66 this week
3 commentsread comments
1 2 3 4 5
x 7
add to favorites
launch autoscroll
font size
0
reset
how to read this tab
guitar tuner
Autoscroll
slow
fast
+/-
esc
set tempo
stop
Help us to improve Ultimate-Guitar.com Take our survey!
×
Author
Difficulty
novice
-------------------------------------------------------------------------------
                         Five Minutes Alone - Pantera
-------------------------------------------------------------------------------
Tabbed by: JRohr
Email: jentzrohr@yahoo.com

Me and a friend spent a good while tabbing this. I hope it helps.

PS- The tabs still say its in Standard, but it is tuned down 1 step. I was just too lazy to label it all.


Tuning: 1 step down  (D G C F A D)

[Intro/Chorus]
e|-----------------x-x-x------------------x-x-x------------------------------|
B|-----------------x-x-x------------------x-x-x------------------------------|
G|-----------------x-x-x------------------x-x-x------------------------------|
D|--------x--------x-x-x---------x--------x-x-x------------------------------|
A|--5/7-2-x-5/7-2----------5/7-2-x-8/5-2-------------------------------------|
E|--3/5-0-x-3/5-0----------3/5-0-x-6/3-0-------------------------------------|

[Pre-verse]
e|---------------------------------------------------------------------------|
B|---------------------------------------------------------------------------|
G|---------------------------------------------------------------------------|
D|-------9-------------------------------------------------------------------|
A|--5/9-----9--8--7/5-----5-------4-------2----------------------------------|
E|---------------------7-----5/3-----3/1-----1-------------------------------|

[Verse]
e|---------------------------------------------------------------------------|
B|---------------------------------------------------------------------------|
G|---------------------------------------------------------------------------|
D|--2--2--2--2---2-2---2-2-2----1--1--1--1---1-1---1-1-1---------------------|
A|--2--2--2--2---2-2---2-2-2----1--1--1--1---1-1---1-1-1---------------------|
E|--0--0--0--0---0-0---0-0-0----0--0--0--0---0-0---0-0-0---------------------|

[Verse ending]
e|---------------------------------------------------------------------------|
B|---------------------------------------------------------------------------|
G|---------------------------------------------------------------------------|
D|-------5------------------7^(9)-----------5--------------------7^(9)-------|
A|----8-----6----------------------------8-----6-----------------------------|
E|-0------------5^(7)--(5)------------0------------5^(7)---(5)---------------|

[Pre-Chorus]
e|---------------------------------------------------------------------------|
B|---------------------------------------------------------------------------|
G|---------------------------------------------------------------------------|
D|--2--2--2--2---2-2---2-2-2-------------------------------------------------|
A|--2--2--2--2---2-2---2-2-2-------------------------------------------------|
E|--0--0--0--0---0-0---0-0-0------/7-----2---1-------------------------------|

e|------------------x-x-x----------------------------------x-x-x-------------|
B|------------------x-x-x----------------------------------x-x-x-------------|
G|------------------x-x-x----------------------------------x-x-x-------------|
D|--------x---------x-x-x-------------------------x--------x-x-x-------------|
A|--5/7-2-x-5/7-2------------------------5/7-2-x-5/7-2-----------------------|
E|--3/5-0-x-3/5-0----------/7---6--1-----3/5-0-x-3/5-0-------------/7---6--5-|

e|------------------x-x-x----------------|
B|------------------x-x-x----------------|
G|------------------x-x-x----------------|
D|--------x---------x-x-x----------------|
A|--5/7-2-x-5/7-2------------------------|
E|--3/5-0-x-3/5-0----------/7---2--1-----|


[Bridge]
(After 2nd Chorus)                   Play 3 times
e|---------------------------------------------------------------------------|
B|---------------------------------------------------------------------------|
G|---------------------------------------------------------------------------|
D|-------9-------------------------------------------------------------------|
A|--5/9-----9--8--7/5-----5-------------4------------------------------------|
E|---------------------7-----7--6--5/3-----3/1-------------------------------|
                                          4th time play:
e|---------------------------------------------------------------------------|
B|---------------------------------------------------------------------------|
G|---------------------------------------------------------------------------|
D|-------9-------------------------------------------------------------------|
A|--5/9-----9--8--7/5-----5-------4-------2----------------------------------|
E|---------------------7-----5/3-----3/1-----1-------------------------------|

[Bridge pt. 2]
                      Play 3 times
e|---------------------------------------------------------------------------|
B|---------------------------------------------------------------------------|
G|---------------------------------------------------------------------------|
D|---------------------------------------------------------------------------|
A|-------5-------------5-------4-------3-------------------------------------|
E|--3/7-----7--6--5/4-----4/3-----3/2-----2/1--------------------------------|
                       
                                       4th time play:
e|---------------------------------------------------------------------------|
B|---------------------------------------------------------------------------|
G|---------------------------------------------------------------------------|
D|---------------------------------------------------------------------------|
A|-------5-------------5--7/6--6/5--5/4--4/3---------------------------------|
E|--3/7-----7--6--5/4-----5/4--4/3--3/2--2/1---------------------------------|

[Solo]
Note: There is 2 guitars in the recorded version, so we did our best to tab 
the live version.
e|-------------------------------------------------------------------6-------|
B|--5--3-5---3-----5--3-5----5--5--3------5---3-5--3-----6------6^-------6^--|
G|--5--3-5---3-----5--3-5----5--5--3------5---3-5--3--5^-----5---------------|
D|---------------------------------------------------------------------------|
A|---------------------------------------------------------------------------|
E|---------------------------------------------------------------------------|


e|---------------------------9------------------------x---x---x--------------|
B|--8--6-8---6-----9-----9^-----9^-----8--6-8---6\----x---x---x--------------|
G|--8--6-8---6--8^----8----------------8--6-8---6\----x---x---x--------------|
D|--------------------------------------------------x---x---x----------------|
A|--------------------------------------------------x---x---x----------------|
E|--------------------------------------------------x---x---x-----/14\-------|


e|-19^-(Trem Pick)---------------18--17--15--17------------------------------|
B|------------------------------------------------17--15--17-----------------|
G|---------------------------------------------------------------------------|
D|---------------------------------------------------------------------------|
A|---------------------------------------------------------------------------|
E|---------------------------------------------------------------------------|

e|---------------------------------------------------------------------------|
B|--5--3-5----5-5-3------8--6-8----6-----8--6----8--6-8----8-8-6-------------|
G|--5--3-5----5-5-3------8--6-8----6-----8--6----8--6-8----8-8-6-------------|
D|---------------------------------------------------------------------------|
A|---------------------------------------------------------------------------|
E|---------------------------------------------------------------------------|

                                        Dive with bar, Harmonic sqeal (dont have trem)
e|------------------------------------------------------------------------|
B|--10--8-10---8---10--8-10---10-10-8----12--10-12----10\-----------------|
G|--10--8-10---8---10--8-10---10-10-8----12--10-12----10\----?------------|
D|------------------------------------------------------------------------|
A|------------------------------------------------------------------------|
E|------------------------------------------------------------------------|

[After chorus]
                                  Play 3 times
e|-------------------------------------------------------------------------|
B|-------------------------------------------------------------------------|
G|-------------------------------------------------------------------------|
D|-------3--------------------3--------------------------------------------|
A|--3----1-3-2----3--3-2------1--2---3-2-----3/5---------------------------|
E|--1------1-0----1--1-0---------0---1-0-----1/3---------------------------|

                                              4th time play:
e|-------------------------------------------------------x-x-x-x-x-x-x-x---|
B|-------------------------------------------------------x-x-x-x-x-x-x-x---|
G|-------------------------------------------------------x-x-x-x-x-x-x-x---|
D|-------------------------------------------------------x-x-x-x-x-x-x-x---|
A|--2--3-2--3/5--2--3-2--3/5--2--3-2--3/5--2--3-2--3/5---x-x-x-x-x-x-x-x---|
E|--0--1-0--1-3--0--1-0--1/3--0--1-0--1/3--0--1-0--1/3---------------------| 

 

************************************

| x    Dead note
| (n)  Ghost note
| /    Slide up
| \    Slide down 

************************************
Suggest correction
comments
print report bad tab
3 comments total.
+3 reply
metallord61 31 Dec 13, 2007 10:47 AM

Class tab! rock on!

+2 reply
Metalfan89 10 Feb 12, 2008 07:59 PM

Yeah I just finished up Master Of Puppets, so I am going to move on to 5 MInutes Alone with these tabs. I will update on how it went when I am finished.

+1 reply
njh31907 10 Jan 18, 2009 08:19 PM

oh my god i learned this song by your tab and it is a kick ass tab thank you soooooo much it helped out alot

guest
You may want to rate the tab now too:
select rating
Wanna post a correction for this tab? Suggest correction