Oops, an error
Loading. Please wait.

Fucking Hostile Tab

version 2
version 2
79,297 views 117 this week
11 commentsread comments
1 2 3 4 5
x 22
add to favorites
launch autoscroll
font size
0
reset
how to read this tab
guitar tuner
Autoscroll
slow
fast
+/-
esc
set tempo
stop
Help us to improve Ultimate-Guitar.com Take our survey!
×
-------------------------------------------------------------------------
                             Fucking Hostile - Pantera
-------------------------------------------------------------------------
Tabbed by:stevo
Email:hotrail1@hotmail.com

Tuning: standard

Main riff:
e|--------------------------- |-------------------------------------------|
B|--------------------------- |-------------------------------------------|
G|--------------------------- |-------------------------------------------|
D|--------------------------- |-------------------------------------------|
A|-7--7--7-7-7--7--7--7-7-7-5 |-7--7--7-7-7--7--7--7--7-7-7-5-------------|
E|-5--5--5-5-5--5--5--5-5-5-3 |-5--5--5-5-5--5--5--5--5-5-5-3-------------|

e|----------------------------|-------------------------------|-----------|
B|----------------------------|-------------------------------|-----------|
G|----------------------------|-------------------------------|-----------|
D|----------------------------|-------------------------------|-----------|
A|-7--7--7-7-7--7--7--7-7-7-5-|-7--7--7-7-7--7--7--7--7-7-7-5-|-----------|
E|-5--5--5-5-5--5--5--5-5-5-3-|-5--5--5-5-5--5--5--5--5-5-5-3-|-----------|

e|---------|------------------|-------------------------------------------|
B|---------|------------------|-------------------------------------------|
G|---------|------------------|-------------------------------------------|
D|-------5-|------------/7--7-|-------------------------------------------|
A|-3-2-3-3-|-0-0-0-0-0-0----5-|-------------------------------------------|
E|-5-4-1---|------------------|-------------------------------------------|

Chorus:
e|----------------------------------------------|-------------------------|
B|----------------------------------------------|-------------------------|
G|----------------------------------------------|-------------------------|
D|-7/5------------7/5------------7/5------------|-------------------------|
A|-5/3-----5--x---5/3------5--x--5/3-----5--4-7-|-------------------------|
E|-------0-3--x---------0--3--x-------0--3--6-5-|-------------------------|

e|------------------------------|-----------------------------------------|
B|------------------------------|-----------------------------------------|
G|------------------------------|-----------------------------------------|
D|----------------------------7-|5-----------7--5---------7--5------------|
A|----------------------------5-|3-----5--x--5--3----5--x-5--3-----5--6-5-|
E|-5-5-5-5-5-5-5-5-5-5-5-5-5----|---0--3--x--------0-3--x-------0--3--4-7-|

Bridge:
e|-------------------------|----------------------------------------------|
B|-------------------------|----------------------------------------------|
G|-------------------------|----------------------------------------------|
D|-------------------------|----------------------------------------------|
A|-2--2--2--2--5--------5--|----------------------------------------------|
E|-0--0--0--0--3--0--0--3--|----------------------------------------------|

Solo with wah and floyd rose whammy bar for scooping:
e|------------------------------------------------------------------------|
B|-8(10)-8(10)-8(10)-8(10)-12--12--12--12--12--12--12--12--14--12-14------|
G|-------------------------12--12--12--12--12--12--12--12--14--12-14------|
D|------------------------------------------------------------------------|
A|------------------------------------------------------------------------|
E|------------------------------------------------------------------------|

for this section scoop up with bar every note at 15th fret:
e|-17-20-17-15-19-17-15-20-17-15-19-17-15-20-17-15-19-17-15-20-17-15-19----|
B|-------------------------------------------------------------------------|
G|-------------------------------------------------------------------------|
D|-------------------------------------------------------------------------|
A|-------------------------------------------------------------------------|
E|-------------------------------------------------------------------------|

e|-17-15-20-17-15-19-17-15-20-17-15-19-17-15-20-17--17-17-17-17-x-x-x-x---|
B|------------------------------------------------------------------------|
G|------------------------------------------------------------------------|
D|------------------------------------------------------------------------|
A|------------------------------------------------------------------------|
E|------------------------------------------------------------------------|

e|---17-17-17-17-17----17-17-17-17-17----17--17*--------------------------|
B|-20(22)------------20(22)------------20(22)-----------------------------|
G|------------------------------------------------------------------------|
D|------------------------------------------------------------------------|
A|------------------------------------------------------------------------|
E|------------------------------------------------------------------------|

e|-------------------|-8--------------8--------------|-8------------------|
B|-------------------|-11(13)---------11(13)---------|-11(13)--8----------|
G|-------------------|--------8---------------8------|---------10(12)-----|
D|-------------------|--------10(12)----------10(12)-|--------------------|
A|-0(dive bomb w/bar-|-------------------------------|--------------------|
E|-------------------|-------------------------------|--------------------|

e|-------------|-8---------------8-------------|-8------------------------|
B|-10----------|-11(13)--8-------11(13)--8-----|-11(13)--8------9---------|
G|-12(14)(hold)|---------10(12)----------10(12)|---------10(12)-11(13)----|
D|-------------|-------------------------------|--------------------------|
A|-------------|-------------------------------|--------------------------|
E|-------------|-------------------------------|--------------------------|

e|------------------------------------------------------------------------|
B|-10---------------------------------------------------------------------|
G|-12(14)(hold)-----------------------------------------------------------|
D|------------------------------------------------------------------------|
A|------------------------------------------------------------------------|
E|------------------------------------------------------------------------|

Outro chords:
e|---------|-------------|----------|-------------------------------------|
B|---------|-------------|----------|-------------------------------------|
G|---------|-------------|----------|-------------------------------------|
D|---------|-------------|----------|-------------------------------------|
A|-7--3--6-|--7--5--6--7-|--4--5--6-|--7----------------------------------|
E|-5--5--4-|--5--3--4--5-|--2--3--4-|--5----------------------------------|

Song structure:

Main riff/verse riffx4
chorusx1
bridgex7
main riffx4
chorusx
solo x1
main riffx4
chorusx1
outrox1


| /  slide up
| \  slide down
| h  hammer-on
| p  pull-off
| ~  vibrato
| +  harmonic
| x  Mute note
| *  Push string over fret to make sqealing note
=================================================
Suggest correction
comments
print report bad tab
11 comments total. Showing first comments.
+5 reply
jameseades 47 Feb 03, 2005 12:00 AM

RIP DIME

0 reply
mrmoo182 100 Apr 28, 2006 03:17 AM

sexay

0 reply
juzcook 550 Sep 07, 2006 06:55 AM

sweet tab

guest
You may want to rate the tab now too:
select rating
Wanna post a correction for this tab? Suggest correction