Oops, an error
Loading. Please wait.
We have an official Hollow tab made by UG professional guitarists. Check out the tab »
×
by Pantera
63,691 views 33 this week
12 commentsread comments
1 2 3 4 5
x 27
add to favorites
×
Save as Personal and add changes to this tab that will be seen only by you. Learn more ›
×
You can save this tab as Personal to edit and correct it or add notes. All changes will be seen only by you. Learn more »
launch autoscroll
font size
0
reset
how to read this tab
guitar tuner
backing track
0:00
0:00
edit
Autoscroll
slow
fast
+/-
esc
set tempo
stop
Author
Song: Hollow
Artist:Pantera
Album:Vulgar Display of Power

[Main lead]
 Gtr I
e|--------------------------------------------------|
B|---------------------12-15~--15b17r15b17r15-12~---|
G|-------------12~--12------------------------------|
D|----------14--------------------------------------|
A|--15~--15-----------------------------------------|
E|--------------------------------------------------| 
 |
 |Gtr II
e|----------------------------------------------|
B|-------------------8-12~--12b14r12b14r12-8~---|
G|-------------9~--9----------------------------|
D|----------10----------------------------------|
A|--12~--12-------------------------------------|
E|----------------------------------------------|
 |
 |Gtr III
e|---------------------------------------------------|
B|--------0-----------0-----------0-----------0------|
G|------5---5-------5---5-------5---5-------5---5----|
D|----2-------2---2-------2---2-------2---2-------2--|
A|--0-----------3-----------------------0------------|
E|--------------------------3------------------------|

 Gtr I
e|--------------------------------------------|
B|---------------------12---------------------|
G|-------------12~--12------11b12~----9b11~---|
D|----------14------------9---------7---------|
A|--15~--15-----------------------------------|
E|--------------------------------------------|
 |
 |Gtr II
e|-------------------------------------------|
B|-------------------8-----------------------|
G|-------------9~--9-------------------------|
D|----------10------------12b13~----10b11~---|
A|--12~--12------------10---------9----------|
E|-------------------------------------------|
 |
 |Gtr III
e|---------------------------------------------------|
B|--------0-----------0-----------0-----------0------|
G|------5---5-------5---5-------5---5-------5---5----|
D|----2-------2---2-------2---2-------2-----------0--|
A|--0-----------3-------------------------3----------|
E|--------------------------3-----------2------------|

 Gtr I
e|------------------------------------------------|
B|---------------------12-15~--15b17r15-13-15b17~-|
G|-------------12~--12----------------------------|
D|----------14------------------------------------|
A|--15~--15---------------------------------------|
E|------------------------------------------------|
 |
 |Gtr II
e|-----------------------------------------------|
B|-------------------8-12~--12b14r12-10-12b14~---|
G|-------------9~--9-----------------------------|
D|----------10-----------------------------------|
A|--12~--12--------------------------------------|
E|-----------------------------------------------|
 |
 |Gtr III
e|---------------------------------------------------|
B|--------0-----------0-----------0-----------0------|
G|------5---5-------5---5-------5---5-------5---5----|
D|----2-------2---2-------2---2-------2---2-------2--|
A|--0-----------3-----------------------0------------|
E|--------------------------3------------------------|

 Gtr I
e|---------------------------------------------------|
B|---------------------12----------------------------|
G|-------------12~--12------11b12~----9b11r9b11r9~---|
D|----------14------------9---------7----------------|
A|--15~--15------------------------------------------|
E|---------------------------------------------------|
 |
 |Gtr II
e|----------------------------------------------------|
B|-------------------8--------------------------------|
G|-------------9~--9----------------------------------|
D|----------10------------12b13~----10b11r10b11r10~---|
A|--12~--12------------10---------9-------------------|
E|----------------------------------------------------|
 |
 |Gtr III
e|---------------------------------------------------|
B|--------0-----------0-----------0-----------0------|
G|------5---5-------5---5-------5---5-------5---5----|
D|----2-------2---2-------2---2-------2-----------0--|
A|--0-----------3-------------------------3----------|
E|--------------------------3-----------2------------|

 [Verse]
e|---------------------------------------------------|
B|--------0-----------0-----------0-----------0------|
G|------5---5-------5---5-------5---5-------5---5----|
D|----2-------2---2-------2---2-------2---2-------2--|
A|--0-----------3-----------------------0------------|
E|--------------------------3------------------------|

e|---------------------------------------------------|
B|--------0-----------0-----------0-----------0------|
G|------5---5-------5---5-------5---5-------5---5----|
D|----2-------2---2-------2---2-------2-----------0--|
A|--0-----------3-------------------------3----------|
E|--------------------------3-----------2------------|

e|---------------------------------------------------|
B|--------0-----------0-----------0-----------0------|
G|------5---5-------5---5-------5---5-------5---5----|
D|----2-------2---2-------2---2-------2---2-------2--|
A|--0-----------3-----------------------0------------|
E|--------------------------3------------------------|

e|---------------------------------------------------|
B|--------0-----------0-----------0-----------0------|
G|------5---5-------5---5-------5---5-------5---5----|
D|----2-------2---2-------2---2-------2-----------0--|
A|--0-----------3-------------------------3----------|
E|--------------------------3-----------2------------|

 [Chorus]
e|---------------------------------------------------|
B|--------0-----------0-----------0-----------0------|
G|------5---5-------5---5-------5---5-------5---5----|
D|----2-------2---2-------2-----------0-----------0--|
A|----------------------------3-----------3----------|
E|--0-----------0-----------2-----------2------------|

e|------------------------------------------|
B|--------0-----------0-----------0---------|
G|------5---5-------5---5-------5---5-------|
D|------------0-----------0-----------------|
A|----2-----------2-----------2-------2-----|
E|--3-----------3-----------4-----------4---|

Back to main Lead,verse,and chorus

sorry i don't know the solo, but i'm sure it
is in the A minor pentatonic area, mess around
with that and you'll get it 

[Solo Rhythm]
e|---------------------------------------------------|
B|--------0-----------0-----------0-----------0------|
G|------5---5-------5---5-------5---5-------5---5----|
D|----2-------2---2-------2---2-------2---2-------2--|
A|--0-----------3-----------------------0------------|
E|--------------------------3------------------------|

e|------------------------------------------|
B|--------0-----------0-----------0---------|
G|------5---5-------5---5-------5---5-------|
D|----2-------2---2-------2-----------------|
A|--0-------------------------3-------3-----|
E|--------------3-----------2-----------1---|

 [Bridge]
e|-------------------------------------------------------|
B|-------------------------------------------------------|
G|--------0-----------0-----------0---------0---0--------|
D|------4---4-------4---4-------4---4-----------------0--|
A|----2-------2---2-------2---2-------2---2---------0----|
E|--0-----------0-----------0-----------3-----2---1------|  (x3)

e|-------------------------------------------------------------|
B|-------------------------------------------------------------|
G|--------0-----------0-----------0---0-----0-----0------------|
D|------4---4-------4---4-------5---------2-----2-----0---0----|
A|----2-------2---2-------2--/7-----5---4-----3----------------|
E|--0-----------0-----------------------------------3---1---1--|

 (Heavy Distortion)
e|-----------------------------------------------------|
B|-----------------------------------------------------|
G|-----------------------------------------------------|
D|--------------------------------------------8-8-8-8--|
A|--2---2-2---2-2-2-2--5-7/8---2--2-2--2-2-2--6-6-6-6--|
E|--0---0-0---0-0-0-0--3-5/6---0--0-0--0-0-0--6-6-6-6--| (x4)

e|------------------------------------|
B|------------------------------------|
G|------------------------------------|
D|------------------------------------|
A|------------------------------------|
E|--0--7p0-0-0-6--0-7p0-0-0-6--6-7-8--| (x4)

e|-----------------------------------------------------|
B|-----------------------------------------------------|
G|-----------------------------------------------------|
D|--------------------------------------------8-8-8-8--|
A|--2---2-2---2-2-2-2--5-7/8---2--2-2--2-2-2--6-6-6-6--|
E|--0---0-0---0-0-0-0--3-5/6---0--0-0--0-0-0--6-6-6-6--| (x2)

e|------------------------------------|
B|------------------------------------|
G|------------------------------------|
D|------------------------------------|
A|------------------------------------|
E|--0--7p0-0-0-6--0-7p0-0-0-6--6-7-8--| (x4)

e|-----------------------------------------|
B|-----------------------------------------|
G|-----------------------------------------|
D|--9-7--6-5--4----------9-7--6-5--4-------|
A|--7-5--4-3--2-5-4-3-2--7-5--4-3--2-5-4-3-|
E|--------------3-2-1-0--------------3-2-1-|

 (palm mute 0's)
e|----------------------------------------------|
B|----------------------------------------------|
G|----------------------------------------------|
D|----------------------------------------------|
A|----------------------------------------------|
E|--7b-6--0-7b-6-0-0-0-6--7b-6--0-7b-6-0-6-7-8--| (x4)

e|-------------------------|
B|-------------------------|
G|-------------------------|
D|-------------------------|
A|-------------------------|
E|--7b-6--0-7b-6--0-6-7-8--| (x8)

e|--------------------------------------------|
B|--------------------------------------------|
G|--------------------------------------------|
D|--9-7--6-5--4----------9-7--6-5--4----------|
A|--7-5--4-3--2-5-4-3-2--7-5--4-3--2-5-4-3-2--|
E|--------------3-2-1-0--------------3-2-1-0--|

The rest is just repeated Stuff until faded out

End

************************************

| r  Release
| b  Bend
| ~  Vibrato
| /  Slide up
| p  Pull-off

************************************

[Lyrics]
What's left inside him?
Don't he remember us?
Can't he believe me?
We seemed like brothers
Talked for hours last month
About what we wanna be
I sit now with his hand in mine
But I know he can't feel...
(chorus) No one knows
What's done is done
It's as if he were dead
I'm close with his mother
And she cries endlessly
Lord how we miss him
At least what's remembered
It's so important to make best friends in life
But it's hard when my friend sits with blank expressions
(chorus) No one knows
What's done is done
It's as if he were dead
He as hollow as I alone now (x 4 .. Low and Deep)
He as hollow as I alone
A shell of my friend
Just flesh and bone
There's no soul
He sees no love
I shake my fists at skies above
Mad at God
Mad
He as hollow as I converse
I wish he'd waken from this curse
Hear my words before it's through
I want to come in after you
My best friend
My best Friend
Whoa oh
Come back
He as hollow as I alone
Suggest correction
Creating personal tab
Creating personal tab
You can edit any tab online and save it as your Personal.

You can edit, replace or remove any tab part or add personal notes – all changes will be seen only by you.

Personal tabs can be accessed anytime from any device, even offline.
Learn more »
comments
print report bad tab
12 comments total. Showing first comments.
0 reply
espltd-50 30 Dec 23, 2006 09:40 AM

hey bro i have the solo, but the damn sight wouldn't let me put it up, let me email it to you or something, i have it 100% right. k?
jokeofa_romantic@yahoo.com

0 reply
espltd-50 30 Dec 23, 2006 09:42 AM

and fyi, your 1st gtr has the intro a little wrong, and the sond is in half step

0 reply
Slatera 907 Feb 07, 2007 05:00 PM

excellent you just forgot
|-------12-|
|----7-----|
|-5--------|
|----------|
|----------|
|----------|
each note is a natural harmonic

guest
You may want to rate the tab now too:
select rating
Wanna post a correction for this tab? Suggest correction