Oops, an error
Loading. Please wait.

Ill Be Alright Tab

484 views 1 this week
no commentswrite comment
1 2 3 4 5
2 more votes to show rating
add to favorites
launch autoscroll
font size
0
reset
how to read this tab
guitar tuner
×
Best way to learn
"Ill Be Alright"
Autoscroll
slow
fast
+/-
esc
set tempo
stop
Band- Pantera
Song- Ill Be Alright

E|-------------------------------------------------------------------|
B|-------------------------------------------------------------------|
G|-------------------------------------------------------------------|
D|-------------------------------------------------------------------|
A|-------------------------------------------------------------------|
E|-0-0-0-0-0-0-0-0-0-0-0-0-0-0-0-0-0-0-0-0-0-0-0-0-0-0-0-0-0-0-0-0---|


E|-------------------------------------------------------------------|
B|-------------------------------------------------------------------|
G|----------------------------------------5-5---7-7------------------|
D|-------9-12------14-12-11-------9-------5-5---7-7------------------|
A|-------7-10------12-10-9--------7-------3-3---5-5------------------|
E|-0-0-0------0-0-----------0-0-0---0-0-0-----0----------------------|

E|-------------------------------------------------------------------|
B|-------------------------------------------------------------------|
G|------------------------------5-5---7-7----------------------------|
D|---9-12-----14-12-11----9-----5-5---7-7----------------------------|
A|---7-10-----12-10-9-----7-----3-3---5-5----------------------------|
E|-0-------0------------0-----0-----0--------------------------------|


E|------------------------------------12-natural---------------------|
B|---------------------------------------12-harmonics----------------|
G|-------------------------------------------------------------------|
D|-7-5-7--------------------7-5-7-5-7--------------------------------|
A|-7-5-7-3-5-5-5-3-5-3------7-5-7-3-5--------------------------------|
E|-5-3-5---------------5-3--5-3-5------------------------------------|



E|-------------------------------------------------------------------|
B|-------------------------------------------------------------------|
G|-------------------------------------------------------------------|
D|-4-4-4-4-4-4-4-4-4-4-4-2-4-4-2-2-2-2-4-4-2-4-4---2-----------------|
A|-2-2-2-2-2-2-2-2-2-2-2-0-2-2-0-4-4-0-2-2-0-2-2---2-----------------|
E|-----------------------------------------------3-0-----------------|


E|-------------------------------------------------------------------|
B|-------------------------------------------------------------------|
G|-------------------------------------------------------------------|
D|-------------------------------------------------------------------|
A|-0-2-2-2-2-0-2-2-2-2-0-2-2-2-2-0-3-3-3-2-3-2-0---------------------|
E|-------------------------------------------------------------------|

SOLO

E|-------------------------------------------------------------------|
B|-------------------------------------------------------------------|
G|-------------------------------------------------------------------|
D|-------------------------------------------------------------------|
A|-----------------7-5-----------------------------------------------|
E|-0-0-0-0-0-0-0-0-----7-5-6-3~-0------------------------------------|


E|-------------------------------------------------------------------|
B|-------------------------------------------------------------------|
G|-------------------------------------------------------------------|
D|-------------------------------------------------------------------|
A|-7-5------------7-5------------7-5---------------------------------|
E|-----7-6-5-3~-0-----7-6-5-3~-0-----7-6-5-3~-0----------------------|
Suggest correction
Give kudos to tab author, rate the tab!
1 2 3 4 5
comments
print report bad tab
guest
You may want to rate the tab now too:
select rating
Wanna post a correction for this tab? Suggest correction