Oops, an error
Loading. Please wait.
We have an official Im Broken tab made by UG professional guitarists. Check out the tab »
×
by Pantera
27,462 views 9 this week
3 commentsread comments
1 2 3 4 5
x 7
add to favorites
×
Save as Personal and add changes to this tab that will be seen only by you. Learn more ›
×
You can save this tab as Personal to edit and correct it or add notes. All changes will be seen only by you. Learn more »
launch autoscroll
font size
0
reset
how to read this tab
guitar tuner
backing track
0:00
0:00
edit
Autoscroll
slow
fast
+/-
esc
set tempo
stop
tabbed by: Haminous

Just play this guys. If you have any comments or violent reactions, just email me at
hanter_buoy@yahoo.com. Play this nicely.

Intro:

  00.00                      X3  00.10                    4th
    a    a                         a    a
C#|----------------------------| |---------------------------|
G#|----------------------------| |---------------------------|
 E|----------------------------| |---------------------------|
 B|-0h2--0h2~-0----------------| |-0h2--0h2~-0---------------|
F#|-------------2p0---2--------| |-------------2p0---2----2--|
C#|-----------------3-0--------| |-----------------3-0----0--|

Chorus:

00.13
  a    a               a      a        a    a               a
|------------------------------------|-----------------------------------|
|------------------------------------|-----------------------------------|
|------------------------------------|--------------------------------7~-|
|-0h2--0h2~-0-----------------5h7-5~-|-0h2--0h2~-0-----------------/9----|
|-------------2p0---2--5h7-5~--------|-------------2p0---2--5h7-5~-------|
|-----------------3-0----------------|-----------------3-0---------------|

00.20
  a    a               a      a        a    a                x x  x x
|------------------------------------|---------------------------------|
|------------------------------------|---------------------------------|
|------------------------------------|---------------------------------|
|-0h2--0h2~-0-----------------5h7-5~-|-0h2--0h2~-0---------------------|
|-------------2p0---2--5h7-5~--------|-------------2p0---2---2-2--2-2--|
|-----------------3-0----------------|-----------------3-0---0-0--0-0--|

Verse:

00.26
  x         x  x         x  x         x  x         x 
|-----------------------------------------------------|
|-----------------------------------------------------|
|-----------------------------------------------------|
|-----------------------------------------------------|
|-2---------------------------------------------------|
|-0-5b7-5b7-0--0-5b7-5b7-0--0-5b7-5b7-0--0-5b7-5b7-0--|

00.31
  x         x  x         x  x         x  x             
|---------------------------------------------------------------|
|---------------------------------------------------------------|
|---------------------------------------------------------------|
|-------------------------------------------------------------5-|
|---------------------------------------------------------------|
|-0-5b7-5b7-0--0-5b7-5b7-0--0-5b7-5b7-0--0-5b7-5pb7r5-4-5-6-7---|

00.38
          x  x         x  x         x  x         x
|--------------------------------------------------|
|--------------------------------------------------|
|--------------------------------------------------|
|--------------------------------------------------|
|-5b7-5b7------5b7-5b7------5b7-5b7------5b7-5b7---|
|---------0--0---------0--0---------0--0---------0-|

00.43
  x         x  x         x  x         x  x          
|------------------------------------------------------|
|------------------------------------------------------|
|------------------------------------------------------|
|------------------------------------------------------|
|---5b7-5b7------5b7-5b7------5b7-5b7------5b7r5-5~----|
|-0---------0--0---------0--0---------0--0-----------0-|

Bridge:

00.49

|--------------------------------------------|
|--------------------------------------------|
|--------------------------------------------|
|--------------------------------------------|
|--------------------------------------------|
|-5-6-5-3-0--2-3-2-1-0--5-6-5-3-0--2-3-2-1-0-|

00.54

|--------------------------------------------------|
|--------------------------------------------------|
|--------------------------------------------------|
|--------------------------------------------------|
|------------------------------------------2--2----|
|-5-6-5-3-0--2-3-2-1-0--5-6-5-3-0--2-3-2-1-0--0----|

2nd Chorus - 1.00

2nd Verse - 1.13

2nd Bridge - 1.37

3rd Chorus - 1.47

Interlude:

2.00
  x x  x x  x x  x x
|---------------------|
|---------------------|
|---------------------|
|---------------------|
|-2-2--2-2--2-2--2-2--|
|-0-0--0-0--0-0--0-0--|

2.02                           X4
  x x  x x  x x
|--------------------------------|
|--------------------------------|
|--------------------------------|
|--------------------------5-----|
|-2-2--2-2--2-2--------------7\--|
|-0-0--0-0--0-0--7-6-5-6-7-------|

2.15

|-------------|
|-------------|
|-------------|
|-------------|
|-3-3--3-3--3-|
|-1-1--1-1--1-|

3rd Bridge - 2.17

Fill before solo:

2.27

|------|
|------|
|------|
|------|
|-7-5~-|
|------|

SOLO:

2.28

|-------------------12----------12-----------------------------------------|
|-------15-15----------15-15-------15--------------14-14----15----14----15-|
|-14b16-------14b16-------14b16-------14b16~--9/12-------12----12----12----|
|--------------------------------------------------------------------------|
|--------------------------------------------------------------------------|
|--------------------------------------------------------------------------|

2.32

|------------------17-12-15h12-x-12-15h12-15h12-12-12-12----------12----------|
|----14--------------------------------------------------16-15-12----12-15h12-|
|-12----12~--(12)\------------------------------------------------------------|
|-----------------------------------------------------------------------------|
|-----------------------------------------------------------------------------|
|-----------------------------------------------------------------------------|

2.35

|----------------------------------------------------------------------------|
|-13-12-15h12-15h12-13-12-13-12-------15h12-13h12-13-12-------13h12-12----12-|
|-------------------------------15-12-------------------15h12----------12----|
|----------------------------------------------------------------------------|
|----------------------------------------------------------------------------|
|----------------------------------------------------------------------------|

2.38
                                        \/\/\/ \/
|-----------------------------------------------------------------------|
|-----------------------------------------------------------------------|
|-15-14h12-14h12----12-12/11----11-11----------------------------12b14--|
|----------------14----------12-------12~------------------12h14--------|
|-------------------------------------------------10-12/14--------------|
|----------------------------------------------12-----------------------|

2.42
  A.H.--------|     A.H.        \/\/      \/\/      \/\/            \/\/\/\/
|-----------------------------12~-------14~-------15~-------15b17b19~~-------|
|------------------------5/12--------12--------12--------12------------------|
|-16pb19r16b19---------------------------------------------------------------|
|--------------14h12-14~-----------------------------------------------------|
|----------------------------------------------------------------------------|
|----------------------------------------------------------------------------|

2.48                                                 b17
                                                     b17      ^21\/\/\/\/
|-15b17--15^17--15b17--15^17--15^13--15b17--15^17--15^13----19b21~~-------|
|-15b17--15^17--15b17--15^17--15^13--15b17--15^17--15^13------------------|
|-------------------------------------------------------------------------|
|-------------------------------------------------------------------------|
|-------------------------------------------------------------------------|
|-------------------------------------------------------------------------|

2.55

|-------------15-17/19-19-------------16-17/19-19-------------|
|-15-17/19-19-------------15-17/19-19-------------15-17/19-19-|
|-------------------------------------------------------------|
|-------------------------------------------------------------|
|-------------------------------------------------------------|
|-------------------------------------------------------------|

2.57

|-15-17-18-19-20-21-22-22b24~~~~|
|-------------------------------|
|-------------------------------|
|-------------------------------|
|-------------------------------|
|-------------------------------|
|                     2.58 - 4th Chorus
|       a
|---------------------|
|---------------------|
|---------------------|
|-2--2----------------|
|-2--2--5h7-5~~-------|
|-0--0----------------|

4th Bridge - 3.11

Fill before 5th Chorus:

3.20

|----------|
|----------|
|----------|
|----------|
|-----7-5~-|
|-0-0------|

5th Chorus - 3.22

2nd Interlude - 3.33

Fade Out

Tab legend:

00.00 = Time relation in song
a = acciaccatura (note played, but as part of following note length)
h = hammer-on
p = pull-off
~ = vibrato (using finger/s)
/9 = slide in to from below
\9 = slide in to from above
9\ = slide out of downwards
9/ = slide out of upwards
x = palm mute
b = bend (e.g. 5b7 = play 5 then bend up 1 step)
pb = pre-bend (e.g. 5pb7 = bend 5 up one step then play)
r = release (e.g. 5b7r5 = play 5 then bend up 1 step then release down 1 step) 
() = ghost note (e.g. (12) there, but no played)
/\ = Pull tremolo bar up
\/ = Push tremolo bar down
\/\/\/ = Tremolo vibrato
A.H. = Artificial/Pinched harmonic
^ = Tremolo bend / Alter note pitch with tremolo bar (e.g. 15^17 = play 15 then pull
tremolo bar up until note pitch is that of 17, i.e. one step up) NB: Tremolo bends and
finger bends can be, and in one instance are executed (in this song)


            
            
Suggest correction
Creating personal tab
Creating personal tab
You can edit any tab online and save it as your Personal.

You can edit, replace or remove any tab part or add personal notes – all changes will be seen only by you.

Personal tabs can be accessed anytime from any device, even offline.
Learn more »
comments
print report bad tab
3 comments total.
0 reply
texmex789 10 Mar 18, 2007 05:08 PM

This is the actual way to play i chekced it out good job man.

0 reply
thrash_bassist 41 Apr 12, 2007 06:45 AM

how the hell can you bend a 15 to 13 o.O wtf?

0 reply
brandon(KETE) 555 Sep 19, 2007 03:28 AM

use the tremolo arm of your guitar,

guest
Wanna post a correction for this tab? Suggest correction