Oops, an error
Loading. Please wait.
We have an official Im Broken tab made by UG professional guitarists. Check out the tab »
×
by Pantera
5,759 views 9 this week
1 commentread comment
1 2 3 4 5
x 4
add to favorites
×
Save as Personal and add changes to this tab that will be seen only by you. Learn more ›
×
You can save this tab as Personal to edit and correct it or add notes. All changes will be seen only by you. Learn more »
launch autoscroll
font size
0
reset
guitar tuner
backing track
0:00
0:00
edit
Autoscroll
slow
fast
+/-
esc
set tempo
stop
Author
Difficulty
================================================================================
                                 P A N T E R A

                                       -

                              I ' M   B R O K E N
================================================================================


                                FAR BEYOND DRIVEN
                           (c) 1994 East West Records
                             http://www.pantera.com/


                              Tune down 1 & 1/2 steps
                                    C# F# B E


  Note that the tuning on the CD track is 50 cents lower than that outlined in
                             the tab's guitar tuning.


                                 Tempo = 74 BPM
                              Time Signature = 4/4



                          -----------------------------
                                 Transcribed by

                                 PADDY MCMULLAN
                           pmtabs (@t) gmail [dot] com

                                   Version 1.0
                                20th October 2012
                             -----------------------

                             Tablature Symbols Used:


 h         -  Hammer-on
 p         -  Pull-off
 4 b 5     -  Bend Up
 5 r 4     -  Release Bend
 \         -  Slide Down to/Down From
 /         -  Slide Up to/Up From
 ( / )     -  Legato Slide
 ( )       -  Ghost Note/Tied Note/Implied Note
 |-5- --|  -  Rest, and sustain rest for duration of blank space


================================================================================
Intro:                                                    [ Time 00:00 - 00:26 ]
================================================================================


|__________________________________[1-3]
||-----------------------------------| |
||--0h2---0h2---0--------------------|*|
||-----------------2p0---------------|*| x 4
||---------------------3--0----------| |

|____________________________________[4]
||------------------------------------||
||--0h2---0h2---0------------------  -||
||-----------------2p0----------*--  -||
||---------------------3--0-----0-----||

||---------------------------------------------------|
||--0h2---0h2---0----------------------(5b7)-5~~-- \-|
||-----------------2p0-------(5b7)-5~~---------------|
||---------------------3--0--------------------------|

|--------------------------------------------|
|--0h2---0h2---0-----------------------------|
|-----------------2p0------- /7-5~~-----5~~--|
|---------------------3--0---------- /7------|

|---------------------------------------------------|
|--0h2---0h2---0----------------------(5b7)-5~~-- \-|
|-----------------2p0-------(5b7)-5~~---------------|
|---------------------3--0--------------------------|

|-----------------------------------------||
|--0h2---0h2---0---------------- ----- ---||
|-----------------2p0---------*- ---*- ---||
|---------------------3--0--0-0---0-0---0-||



================================================================================
Part 1:                                                   [ Time 00:26 - 00:50 ]
================================================================================


|_____________________________________________[1-3]
||----------------------------------------------| |
||-------------------- -------------------------|*|
||------------------*- -------------------*-----|*| x 4
||--(5 b7)--(5 b7)--0---0-(5 b7)--(5 b7)--0---0-| |


|_______________________________________________[4]
||-----------------------------------------------||
||-------------------- ------------------------5-||
||------------------*- --------------------------||
||--(5 b7)--(5 b7)--0---0-(5 b7 r5)----0-5-6-7---||


|_____________________________________________[1-3]
||----------------------------------------------| |
||----------------------------------------------|*|
||--(5 b7)--(5 b7)--*-----(5 b7)--(5 b7)--*-----|*| x 4
||------------------0---0-----------------0---0-| |


|______________________________________________[4]
| |---------------------------------------------||
|4|---------------------------------------------||
|/|--(5 b7)--(5 b7)--*-----(5 b7 r5)--- \---0-1-||
|4|------------------0---0----------------0-----||



I wonder if we'll smile in our coffins while
Loved ones mourn the day, the absence of our face,
Living, laughing, eyes awake
Is this too much for them to take?

Too young for one's conclusion, the lifestyle won
Such values you taught your son



================================================================================
Part 2:                                                   [ Time 00:50 - 01:00 ]
================================================================================


| |--------------------------|--------------------------|
|3|-------- ----------- -----|-------- ----------- -----|
|/|--0---*- ---------*- -0-1-|--0---*- ---------*- -0-1-|
|4|----3-0---2-3-2-1-0-------|----3-0---2-3-2-1-0-------|


|------------------------| |------------------------------||
|------------------------|4|------------------- ---      -||
|--0-----------------0-1-|/|--0--------------*- -*-      -||
|----3-0--2-3-2-1-0------|4|----3-0--2-3-2-1-0---0--------||



That's how
Look at me now



================================================================================
Part 3:                                                   [ Time 01:00 - 01:13 ]
================================================================================


||---------------------------------------------------|
||--0h2---0h2---0----------------------(5b7)-5~~-- \-|
||-----------------2p0-------(5b7)-5~~---------------|
||---------------------3--0--------------------------|

|---------------------------------------7~~--|
|--0h2---0h2---0-------------------- /9------|
|-----------------2p0------- /7-5~~----------|
|---------------------3--0-------------------|

|---------------------------------------------------|
|--0h2---0h2---0----------------------(5b7)-5~~-- \-|
|-----------------2p0-------(5b7)-5~~---------------|
|---------------------3--0--------------------------|


|-----------------------------------------||
|--0h2---0h2---0---------------- ----- ---||
|-----------------2p0---------*- ---*- ---||
|---------------------3--0--0-0---0-0---0-||



I'm broken
Inherit my life
I'm broken



================================================================================
Part 4: Repeat Part 1                                     [ Time 01:13 - 01:37 ]
================================================================================


One day we all will die, clichéd fact of life
Force fed to make us heed, inbred to sponge our bleed
Every warning, a leaking rubber, a poison apple for mingled blood

Too young for one's delusion the lifestyle cost
Venereal Mother embrace the loss



================================================================================
Part 5: Repeat Part 2                                     [ Time 01:37 - 01:54 ]
================================================================================

================================================================================
Part 6: Repeat Part 3 with the following variation        [ Time 01:54 - 02:02 ]
================================================================================


Add the following bar to the end of Part 3:


| |----------------------||
|5|---- ----- ----- -----||
|/|--*- ---*- ---*- -----||
|8|--0---0-0---0-0---0-0-||



================================================================================
Part 7: Guitars 1 & 2                                     [ Time 02:02 - 02:17 ]
================================================================================


||-----------------------------------|-----------------------------------|
||-  ----- ----- ----- ------------5-|---------- ----- ----------------5-|
||-  ---*- ---*- ---*- --------------|--7\ ---*- ---*- ------------------|
||----0-0---0-0---0-0---7-6-5-6-/7---|------0-0---0-0---0-0-7-6-5-6-/7---|


|-----------------------------------|-----------------------------------|
|---------- ----- ----------------5-|---------- ----- ----------------5-|
|--7\ ---*- ---*- ------------------|--7\ ---*- ---*- ------------------|
|------0-0---0-0---0-0-7-6-5-6-/7---|------0-0---0-0---0-0-7-6-5-6-/7---|


| |-----------------------||
|5|--------- ----- -------||
|/|--7\ --*- ---*- ---0-1-||
|8|-----1-1---1-1---1-----||



================================================================================
Part 8:                                                   [ Time 02:17 - 02:27 ]
================================================================================


| |------------------------|------------------------|------------------------|
|3|------------------------|------------------------|------------------------|
|/|--0-----------------0-1-|--0-----------------0-1-|--0-----------------0-1-|
|4|----3-0--2-3-2-1-0------|----3-0--2-3-2-1-0------|----3-0--2-3-2-1-0------|


| |---------------------------------||
|4|------------------- --- ---------||
|/|--0--------------*- -*- - /7-5---||
|4|----3-0--2-3-2-1-0---0-----------||



================================================================================
Guitar Solo Backing:                                      [ Time 02:27 - 02:59 ]
================================================================================


||--------------------------------|-------------------------------|
||--------------------------------|-------------------------------|
||--0-1-0-----------------0-1-0---|----------------0-1-0----------|
||--------3-0--2-3-2-1-0--------3-|--0--2-3-2-1-0--------3-0--2-3-|


|-------------------------------|--------------------------------|
|-------------------------------|--------------------------------|
|---------0-1-0-----------------|--0-1-0-----------------0-1-0---|
|--2-1-0--------3-0--2-3-2-1-0--|--------3-0--2-3-2-1-0--------3-|


|-------------------------------| |------------------------|
|-------------------------------|3|------------------------|
|----------------0-1-0----------|/|---------0-1-0----------|
|--0--2-3-2-1-0--------3-0--2-3-|4|--2-1-0--------3-0--2-3-|


|---------------------------|------------------------|------------------------|
|---------------------------|------------------------|------------------------|
|------0-1-2/7\---7-5---0-1-|--0-----------------0-1-|--0-----------------0-1-|
|--2-2----------------------|----3-0--2-3-2-1-0------|----3-0--2-3-2-1-0------|


|------------------------| |----------------------------------||
|------------------------|4|----------------------------------||
|--0-----------------0-1-|/|--0--------------*---*--- /7-5~~--||
|----3-0--2-3-2-1-0------|4|----3-0--2-3-2-1-0---0------------||



================================================================================
Part 9:                                                   [ Time 02:59 - 03:22 ]
================================================================================


||---------------------------------------------------|
||--0h2---0h2---0----------------------(5b7)-5~~-- \-|
||-----------------2p0-------(5b7)-5~~---------------|
||---------------------3--0--------------------------|

|---------------------------------------7~~--|
|--0h2---0h2---0-------------------- /9------|
|-----------------2p0------- /7-5~~----------|
|---------------------3--0-------------------|

|---------------------------------------------------|
|--0h2---0h2---0----------------------(5b7)-5~~-- \-|
|-----------------2p0-------(5b7)-5~~---------------|
|---------------------3--0--------------------------|

| |---------------------------------------------| |------------------------|
|9|--0h2---0h2---0---------------- ----- -------|3|------------------------|
|/|-----------------2p0---------*- ---*- ---0-1-|/|--0-----------------0-1-|
|8|---------------------3--0--0-0---0-0---0-----|4|----3-0--2-3-2-1-0------|

|------------------------|------------------------|
|------------------------|------------------------|
|--0-----------------0-1-|--0-----------------0-1-|
|----3-0--2-3-2-1-0------|----3-0--2-3-2-1-0------|

| |-------------------------------7/ -||
|4|------------------- --- -------7/ -||
|/|--0--------------*- -*- - /7-5-5/ -||
|4|----3-0--2-3-2-1-0---0-------------||



================================================================================
Part 10:                                                  [ Time 03:22 - 03:37 ]
================================================================================


||---------------------------------------------------|
||--0h2---0h2---0----------------------(5b7)-5~~-- \-|
||-----------------2p0-------(5b7)-5~~---------------|
||---------------------3--0--------------------------|

|---------------------------------------|
|--0h2---0h2---0-------------------7----|
|-----------------2p0------- /7-5-(5)---|
|---------------------3--0--------------|

|---------------------------------------------------|
|--0h2---0h2---0----------------------(5b7)-5~~-- \-|
|-----------------2p0-------(5b7)-5~~---------------|
|---------------------3--0--------------------------|

| |-----------------------------------------| |----------------------||
|4|--0h2---0h2---0---------------- ----- ---|5|---- ----- ----- -----||
|/|-----------------2p0---------*- ---*- ---|/|--*- ---*- ---*- ---*-||
|4|---------------------3--0--0-0---0-0---0-|8|--0---0-0---0-0---0-0-||



================================================================================
Outro:                                                    [ Time 03:37 - 04:24 ]
================================================================================


| |-----------------------------------||
|4|-  ----- ----- ----- ------------5-||
|/|-  ---*- ---*- ---*- --------------||
|4|----0-0---0-0---0-0---7-6-5-6-/7---||


| |-----------------------------------| |
|*|---------- ----- ----------------5-|*|
|*|--7\ ---*- ---*- ------------------|*| x Repeat until fade
| |------0-0---0-0---0-0-7-6-5-6-/7---| |



================================================================================
End
================================================================================


Tab summary:        Intro                    [00:00]
                    Part 1                   [00:26]
                    Part 2                   [00:50]
                    Part 3                   [01:00]
                    Part 4                   [01:13]
                    Part 5                   [01:37]
                    Part 6                   [01:54]
                    Part 7                   [02:02]
                    Part 8                   [02:17]
                    Guitar Solo Backing      [02:27]
                    Part 9                   [02:59]
                    Part 10                  [03:22]
                    Outro                    [03:37]

                    END                      [04:24]
Suggest correction
Creating personal tab
Creating personal tab
You can edit any tab online and save it as your Personal.

You can edit, replace or remove any tab part or add personal notes – all changes will be seen only by you.

Personal tabs can be accessed anytime from any device, even offline.
Learn more »
comments
print report bad tab
1 comment total.
+1 reply
Pindapoeper 145 Mar 24, 2013 05:54 AM

Thats one epic tab!

guest
You may want to rate the tab now too:
select rating
Wanna post a correction for this tab? Suggest correction