Oops, an error
Loading. Please wait.
We have an official Psycho Holiday tab made by UG professional guitarists. Check out the tab »
×
by Pantera
118 views 3 this week
no commentswrite comment
1 2 3 4 5
3 more votes to show rating
add to favorites
×
Save as Personal and add changes to this tab that will be seen only by you. Learn more ›
×
You can save this tab as Personal to edit and correct it or add notes. All changes will be seen only by you. Learn more »
launch autoscroll
font size
0
reset
guitar tuner
backing track
0:00
0:00
edit
Autoscroll
slow
fast
+/-
esc
set tempo
stop
Author
Difficulty
Pantera
Psycho Holiday


[Intro]

G|----------------------|
D|----------------------|
A|----------------------|8x
E|-1-1-1-1--1-1--1-1--1-|
                                          
G|------------------------------------------|
D|------------------------------------------|
A|------------------------------------------|8x
E|-3-3-3-3--3-3--3-3--3-3--3-3--3-3--3-3--3-|

G|--------------------------------|
D|--------------------------------|
A|------------2-----------------5-|4x
E|--------------4~--4---2---4-----|
 

[Verse]

G|----------------------|
D|----------------------|
A|----------------------|12x
E|-0-0-0-0--0-0--0-0--0-|

G|--------------------------------|
D|--------------------------------|
A|------------2-----------------5-|
E|--------------4~--4---2---4-----|

G|----------------------|
D|----------------------|
A|----------------------|4x
E|-0-0-0-0--0-0--0-0--0-|

G|-------------------------------|
D|-------------------------------|
A|------------2----------------5-|3x
E|--------------4~--4---2---4----|

G|---------------------------------------------------------------|
D|---------------------------------------------------------------|
A|------------2--------------7--------7--7\----------------------|
E|--------------4~--0--0--0-----0--0-----------------------------|


[Chorus]

G|--------------------|
D|--------------------|
A|--------------------|7x
E|-3-3--3-3--3-3--3-3-|

G|--------------------|
D|--------------------|
A|--------------------|
E|-3-3--3-3--3-3--0~--|

G|--------------------|
D|--------------------|
A|--------------------|7x
E|-3-3--3-3--3-3--3-3-|

G|-----------------------|
D|-5-5-5-5~-5-5-5-5-5-5\-|
A|-----------------------|
E|-----------------------|


[Verse]

G|----------------------|
D|----------------------|
A|----------------------|7x
E|-0-0-0-0--0-0--0-0--0-|

G|----------------------|
D|----------------------|
A|----------7-7--7-7\---|
E|-0-0-0-0--------------|

G|----------------------|
D|----------------------|
A|----------------------|8x
E|-0-0-0-0--0-0--0-0--0-|

G|--------------------------------|
D|--------------------------------|
A|------------2-----------------5-|
E|--------------4~--4---2---4-----|

G|----------------------|
D|----------------------|
A|----------------------|4x
E|-0-0-0-0--0-0--0-0--0-|

G|-------------------------------|
D|-------------------------------|
A|------------2----------------5-|3x
E|--------------4~--4---2---4----|

G|---------------------------------------------------------------|
D|---------------------------------------------------------------|
A|------------2--------------7--------7--7\----------------------|
E|--------------4~--0--0--0-----0--0-----------------------------|


[Chorus]

G|--------------------|
D|--------------------|
A|--------------------|7x
E|-3-3--3-3--3-3--3-3-|

G|--------------------|
D|--------------------|
A|--------------------|
E|-3-3--3-3--3-3--0~--|

G|--------------------|
D|--------------------|
A|--------------------|7x
E|-3-3--3-3--3-3--3-3-|

G|--------------------------------------|
D|-----------------------5-3------------|
A|---------------------------5-4-3------|
E|-3-------------------------------6-3~-|


[Solo]

G|-----------------------------------------------------|
D|-----------------------------------------------------|
A|----------7b-------------5b~----------7b-------------|
E|-0-0--0-0----0--0-0--0-0-----0-0--0-0----0--0-7--3b~-|

G|------------------------------------------------|
D|------------------------------------------------|
A|----------7b---5--4--2-------------7\-----------|
E|-0-0--0-0----0---------4/-0-0--0-0-----0~-1~-2~-|

G|--------------------------------------------------|
D|--------------------------------------------------|
A|---------------------1-1~--------------------1-1~-|
E|-3--3--3--3--3--3--1-------3--3--3--1-3-3--1------|

G|----------------------------------------------|
D|----------------------------------------------|
A|-------------------1-1~-----------------------|
E|-3--3--3--1-3-3--1-------3--3--3--3--3--3-2-1-|

G|------------------------------------------------------|
D|------------------------------------------------------|
A|----------7b-------------5b~----------7b---------10b~-|
E|-0-0--0-0----0--0-0--0-0-----0-0--0-0----0--0-7-------|

G|-----------------------------------------------|
D|-----------------------------------------------|
A|----------7---5--4--2-------------7\-----------|
E|-0-0--0-0---0---------4/-0-0--0-0------0~--1~--|

G|--------------------------------------------------|
D|--------------------------------------------------|
A|---------------------1-1~--------------------1-1~-|
E|-3--3--3--3--3--3--1-------3--3--3--1-3-3--1------|

G|----------------------------------------------|
D|----------------------------------------------|
A|-------------------1-1~-----------------------|
E|-3--3--3--1-3-3--1-------3--3--3--3-2-1-1-2-3-|

G|-----------------------------------------------|
D|-----------------------------------------------|
A|-0--0--0--0--0--0--0-3-3~--0--0--0--0-0-0--0-3-|
E|-----------------------------------------------|

G|-----------------------------------------------|
D|-----------------------------------------------|
A|-2~--2--2--2--2--2--2--2--5-5-5-5-5-5----------|
E|-------------------------------------------12\-|


[Verse]

G|----------------------|
D|----------------------|
A|----------------------|7x
E|-0-0-0-0--0-0--0-0--0-|

G|----------------------|
D|----------------------|
A|----------7-7--7-7\---|
E|-0-0-0-0--------------|

G|----------------------|
D|----------------------|
A|----------------------|8x
E|-0-0-0-0--0-0--0-0--0-|

G|--------------------------------|
D|--------------------------------|
A|------------2-----------------5-|
E|--------------4~--4---2---4-----|

G|----------------------|
D|----------------------|
A|----------------------|4x
E|-0-0-0-0--0-0--0-0--0-|

G|-------------------------------|
D|-------------------------------|
A|------------2----------------5-|3x
E|--------------4~--4---2---4----|

G|---------------------------------------------------------------|
D|---------------------------------------------------------------|
A|------------2--------------7--------7--7\-----------------7----|
E|--------------4~--0--0--0-----0--0--------------------------0--|


[Chorus]

G|--------------------|
D|--------------------|
A|--------------------|7x
E|-3-3--3-3--3-3--3-3-|

G|--------------------|
D|--------------------|
A|--------------------|
E|-3-3--3-3--3-3--0~--|

G|--------------------|
D|--------------------|
A|--------------------|7x
E|-3-3--3-3--3-3--3-3-|

G|--------------------|
D|--------------------|
A|-4--3--1--3---------|
E|-------------1~-----|

G|-------------------------------|
D|-------------------------------|
A|-------------------------------|3x
E|-3---3---3---3---3---3---3-1~--|

G|----------------------------------|
D|-----------------------------3--5-|
A|-----------------4--3--1--3-------|
E|-3---3---3---3--------------------|

G|-------------------------------|
D|-------------------------------|
A|-------------------------------|3x
E|-3---3---3---3---3---3---3-1~--|

G|----------------------------------|
D|----------------------------------|
A|----------------------------------|
E|-3--------------------------------|

G|---------------------------------|---------------------------------|
D|---------------------------------|---------------------------------|
A|-1-1-1-1-1-1-1-1-1-1-1-1-1-1-1-1-|-0-0-0-0-0-0-0-0-0-0-0-0-0-0-0-0-|
E|---------------------------------|---------------------------------|

G|---------------------------------|---------------------------------|
D|---------------------------------|---------------------------------|
A|---------------------------------|---------------------------------|
E|-4-4-4-4-4-4-4-4-4-4-4-4-4-4-4-4-|-3-3-3-3-3-3-3-3-3-3-3-3-3-3-3-3-|

G|---------------------------------|---------------------------------|
D|---------------------------------|---------------------------------|
A|-1-1-1-1-1-1-1-1-1-1-1-1-1-1-1-1-|-0-0-0-0-0-0-0-0-0-0-0-0-0-0-0-0-|
E|---------------------------------|---------------------------------|

G|---------------------------------|-------------------------|
D|---------------------------------|-------------------------|
A|---------------------------------|-------------------------|
E|-4-4-4-4-4-4-4-4-4-4-4-4-4-4-4-4-|-3--3--3-1~--3--3--3-2~--|

G|---------------------------------|---------------------------------|
D|---------------------------------|---------------------------------|
A|-1-1-1-1-1-1-1-1-1-1-1-1-1-1-1-1-|-0-0-0-0-0-0-0-0-0-0-0-0-0-0-0-0-|
E|---------------------------------|---------------------------------|

G|---------------------------------|---------------------------------|
D|---------------------------------|---------------------------------|
A|---------------------------------|-------------------5-4-3---------|
E|-4-4-4-4-4-4-4-4-4-4-4-4-4-4-4-4-|-3-3-3-3-3-3-3-3-3-------6~------|

G|---------------------------------|---------------------------------|
D|---------------------------------|---------------------------------|
A|-1-1-1-1-1-1-1-1-1-1-1-1-1-1-1-1-|-0-0-0-0-0-0-0-0-0-0-0-0-0-0-0-0-|
E|---------------------------------|---------------------------------|

G|---------------------------------|-------------------------|
D|---------------------------------|-------------------------|
A|---------------------------------|-------------------------|
E|-4-4-4-4-4-4-4-4-4-4-4-4-4-4-4-4-|-3--3--3-1~--3--3--3-2~--|

G|--------------------------------------------------------------|
D|--------------------------------------------------------------|
A|----------------1~-------------------------------------1~-----|
E|-3---3---3---3--------------------------------------------3---|


*****************
|~  Vibrato
|/  Slide up 
|\  Slide down
|b  Bend
*****************

            
            
Suggest correction
Creating personal tab
Creating personal tab
You can edit any tab online and save it as your Personal.

You can edit, replace or remove any tab part or add personal notes – all changes will be seen only by you.

Personal tabs can be accessed anytime from any device, even offline.
Learn more »
Give kudos to tab author, rate the tab!
1 2 3 4 5
comments
print report bad tab
guest
You may want to rate the tab now too:
select rating
Wanna post a correction for this tab? Suggest correction