Oops, an error
Loading. Please wait.

Reinventing Hell The Best Of Pantera Bass Tab

8,280 views 1 this week
6 commentsread comments
1 2 3 4 5
x 4
add to favorites
launch autoscroll
font size
0
reset
guitar tuner
Autoscroll
slow
fast
+/-
esc
set tempo
stop
Help us to improve Ultimate-Guitar.com Take our survey!
×
Author
Difficulty
advanced
                           Pantera
                Reinventing Hell (The Best Of Pantera)



This is the first bass pantera album tab on UG     1. Cowboys From Hell
                                                   2. Domination
^ - bend                                           3. Cemetary Gates
p - pull off                                       4. Mouth Of War
h - hammer on                                      5. Walk
r - let ring                                       6. This Love
x - fretting                                       7. Fucking Hostile
* - rest                                           8. Becoming
                                                   9. I'm Broken
                                                  10. 5 Minutes Alone
10 out of 16 of the tabs were tabbed by me        11. Planet Caravan
                                                  12. Drag The Waters
                                                  13. Where You Come From
                                                  14. Revolution Is My Name
                                                  15. Immortally Insane
                                                  16. The Badge


____________________________________________________________________________
                         Cowboys From Hell

Tuning: Standard

intro/chorus pt.1
------------------------------|
----------------------------0-|
------------------------1-2---|
-0-3p0-6p0-5p0-6p0-3p0--------|

intro/chorus pt.2
----------------------|
----------------------|
----------------------|
-0-3p0-0-6-6--6-5-3-0-|

verse pt.1
-----------------------------|
---------------------------0-|
-----------------------1h2---|
-0-0--0--0--0--0--0--0-------|

verse pt.2
--------------------|
------------0-------|
--------------2p1p0-|
-0-0--0--0----------|

pre
----------------------------------|
----------------------------------|
----------------------------------|
-3--3-3-3-3-3-3-3-3-3-5-5--3r--1r-|

solo
---------|
---------|
---------|
-x-0-x-0-| i think this is the way you play the solo riff

solo 2
------------------------------|
------------------------------|
------------------------------|
-6h3-6h3-6h3-9--6h3-6h3-6h3-7-|

____________________________________________________________________________
                            Domination

Tuning: Standard


------------------------------------------|
------------------------------------------|
-----7---7-----7---7------7---7-----------|
-0-0---0---0-0---0----0-0---0---0-0-3/5\3-|


-------------------------|
-------------------------|
-------------------------|
-2-2-2-2-3-3-3-3-4-4-4-4-|


----------|
----------|
----------|
1-1-1-1-0-|


--------------|
--------------|
-5--4-3-2-1-0-|
--------------|


-------------------------|
-------------------------|
--------7---------7----7-|
--0-0-0---0-0-0-0---0-0--|


!!those words that stare into your soul!!
--------------------------------------------------------------------|
--------------------------------------------------------------------|
-7r--3r--5r-------------8r-----------7r-------------6r--5-4-3-2-1-0-|
--------------0-0-0-0-0----0-0-0-0-0------0-0-0-0-0-----------------|

solo
---------------|
---------------|
---------7-----|
-0-0-0-0---0-0-|  this is play before and during the solo

outro
---------------------|
---------------------|
---------------------|
-0-0-0--0-0-0--0-0-0-|

____________________________________________________________________________
                        Cemetary Gates


Tuning: Standard


intro
-----------------------|------------------------|
-----------------------|------------------------|
----0-------5---4-2-0--|------------------------| 
-2----0---4------------|-3r---4r---5r---6r---7r-|
                       !!left in my misery^^^!! 

main riff
--------------------------------------------------------|
------------------------9-------------------------------|
-----------7h6h7-8--6h7--------------7h6h7-8-6h7-6------|
-7h6-0-0-0-----------------7h6-0-0-0----------------7-6-|

verse1
------------------------------|
------------------------------|
-------0-x-x-x-2-x-x-x-3------|
-2-x-x--------------------0-1-|

verse2
--------------------------------|-----------------|
--------------------------------|-----------------|
-----3/--0r--2/--2r--3/--3r--2r-|-3-3-3-3-3-------|
-2r-----------------------------|-----------0-1-2-|


-----------------------------|
-----------------------------|
-3----3------3-3-----3-3-----|
--0-1---0-1------0-1-----0-1-|


play the intro for the solo
and verse 2
____________________________________________________________________________
                      Mouth of War

Tuning: Standard


intro/pre
--------------------------------------|
--------------------------------------|
--------------------------------------|
-0-1h2-2-2--2--2-2-2-0-1h2-2--2--2--2-|


chorus
---------------------------|--------------------|
---------------------------|--------------6-6-6-|
---------------------------|--------------------|
-0-3/7-0-3-0-3/7-0-3/7-0-3-|0-3/7-0-3-0-7\------|


verse
---------------------------------------------------------------|
---------------------------------------------------------6-6-6-|
---------------------------------------------------------------|
-0-0-6-0-6/7-0-5/6-0-3-0-3/5-0-2/3-0-6-0-6/7-0-5/6-0-3-0-------|


-----------------------------------------|
-----------------------------------------|
---------2-------6-5-4-2-2-2-------7-6-5-|
--2-4-4-4—--4-4-4-------------0-0-0------|



-------------|
-------------|
-------------|
-5-5-5h3-5-5-|

-------------------------------------------------------|
-------------------------------------------------------|
-------------------------6r-------------------------4r-|
-5-5-5-5-5-5-5-5-5-5-5-5----5-5-5-5-5-5-5-5-5-5-5-5----|

____________________________________________________________________________
                             Walk

Tuning: Standard


main riff
-----------|
-----------|
-----------|
-0-0-2h1-0-|


-----------------|
-----------------|
-----------------|
-1p0-3p0-4p0-3p0-|


---------------------------------|
---------------------------------|
---------------------------------|
-0-0-2h1-0--0--8--0-0-2h1-0--0-6-|


-------------------------|
-------------------------|
-------------------------|
-1r--0r--4r-|-3r--1r--4r-|


solo
--------------------------------------------------------------------------|
--------------------------------------------------------------------------|
--------------------------------------------------------------------------|
--0-0-1-0--0-0-1-0--0-0-1-0--3-1-3--0-0-1-0--0-0-1-0--0-0-1-0-8-7-6-5-4-3-|

--------------------------------------------------------------------------|
--------------------------------------------------------------------------|
--------------------------------------------------------------------------|
-0-0-1-0--0-0-1-0--0-0-1-0--3-1-3--0-0-1-0--0-0-1-0--0-0-1-0-121212121212-|

____________________________________________________________________________
                              This Love

This is an official pantera tab it's not my own work

Tuning: Standard

------------|----------|---------|--------|---------|--------|---------|
------------|----------|---------|--------|---------|--------|---------|
------------|----------|-2--3----|-2--3---|---------|--------|-4--3--3-|
----2--3--3-|-2--3-----|-------2-|--------|-2--3--0-|-2--3---|---------|


-------------|-------------|--------|-----|
---------5---|---------5---|--------|-----|
-4-0-4-3---3-|-4-0-4-3---3-|--------|-----|
-------------|-------------|-4--5---|-(5)-|


 verse 1
---------|----------|---------|----------|---------|-----------|---------|
---------|----------|---------|----------|---------|-----------|---------|
---------|------2---|---------|------2---|-2--3----|-2---2-3---|---------|
-2--3--0-|-2--3---3-|-2--3--0-|-2--3---3-|-------2-|---2-------|-2--3--0-|


------------|---------|-------------|-------------|--------|---------|
------------|---------|---------5---|---------5---|--------|---------|
---2-4------|-4--3--3-|-4-0-4-3---3-|-4-0-4-3---3-|--------|-4--3--3-|
-2-----3--3-|---------|-------------|-------------|-4--5---|---------|


                                        
-------------|-------------|-----------|-----|
---------5---|---------5---|-----------|-----|
-4-0-4-3---3-|-4-0-4-3---3-|-----------|-----|
-------------|-------------|-4-4-4-5---|-(5)-|


                          2x  chorus                                4x
-----------|----------------|-------------------|--------------------|
-----------|----------------|-------------------|--------------------|
-----------|-----4---2------|-------------------|---------3--2-------|
---2--3--0-|-2-5---3---3----|---0-2-----0-2-----|-0-2-----------3----|


---------|---------|---------|------------|
---------|---------|---------|------------|
---------|---------|---------|-----4------|
-2--3--3-|-2--3--3-|-2--3--3-|-2-5---3--0-|


 verse 2
---------|-------------|---------|-------------|---------|-----------|
---------|-------------|---------|-------------|---------|---4-------|
---------|-----4---2---|---------|-----4---2---|-2--3----|-2---2-3---|
-2--3--0-|-2-5---3---3-|-2--3--0-|-2-5---3---3-|-------2-|-----------|


---------|-------------|---------|-------------|-------------|--------|
---------|-------------|---------|---------5---|---------5---|--------|
---------|-----4---2---|-4--3--3-|-4-0-4-3---3-|-4-0-4-3---3-|--------|
-2--3--0-|-2-5---3---3-|---------|-------------|-------------|-4--5---|


                                               
---------|-------------|-------------|--------|-----|
---------|---------5---|---------5---|--------|-----|
-4--3--3-|-4-0-4-3---3-|-4-0-4-3---3-|--------|-----|
---------|-------------|-------------|-4--5---|-(5)-|


                        2x  chorus                              
-----------|----------------|-------------------|--------------------|
-----------|----------------|-------------------|--------------------|
-----------|-----4---2------|-------------------|---------3--2-------|
---2--3--0-|-2-5---3---3----|---0-2-----0-2-----|-0-2-----------3----|


-----------------------------------|---------------------------|
---------------4-------------------|-------------4-------------|
---------4-------4-----------------|-------4-------4-----------|
---0-2-2---2-2-----5-2-3-4-5-2-4-5-|-0-2-2---2-2-----5-2-3-4-3-|


                                                                2x
---------------------------------|------------------------------|----|
-------------4-------------------|-------------4----------------|----|
-------4-------4-----------------|-------4-------4--------------|----|
-0-2-2---2-2-----5-2-3-4-5-2-4-5-|-0-2-2---2-2-----1-2-3-4-5-6--|-7--|



-----|-----------------------------------|----------------------------|
-----|-----------------------------------|----------------------------|
-----|-----------------------------------|----------------------------|
-(7)-|---1-3---1-3---1-3---1-3---1-4---1-|-3---1-3---1-3---1-4---1-1--|


                                   

---------------------------|------|---|---|---|---|-----------|----------|
---------------------------|------|---|---|---|---|-----------|----------|
---------------------------|------|---|---|---|---|-----------|----------|
-3---1-3---1-3---1-4---1-1-|-(1)--|---|---|---|---|-2-2-3-0-3-|-2--3-0-3-|


----------|----------|---------|--------------------|-----------|
----------|----------|---------|---4-------10-10----|-----------|
----------|----------|-2-2-3---|-2---2-3/9-------9\-|-------2---|
-2--3-0-3-|-2--3-0-3-|-------2-|--------------------|-2-2-3---3-|


-----------|---------|-----------|-------14----|------12-|
-----------|---------|-----------|-12-11----11-|-10-9----|
-------2---|-5--4--4-|-3--2--/14-|-------------|---------|
-2-2-3---3-|---------|-----------|-------------|---------|


                          2x  chorus                                4x
-----------|----------------|-------------------|--------------------|
-----------|----------------|-------------------|--------------------|
-----------|-----4---2------|-------------------|---------3--2-------|
---2--3--0-|-2-5---3---3----|---0-2-----0-2-----|-0-2-----------3----|

                                                               4x
-----------------------------------|---------------------------|
-----------------------------------|---------------------------|
-----------------------------------|---------------------------|
---1-3---1-3---1-3---1-3---1-4---1-|-3---1-3---1-3---1-4---1-1-|


-----------|----------|
-----------|----------|
-2---------|----------|
----0----1-|-(1)--3---|
  

                                                         5x and fade
-----------------------------------|-----------------------------|
-----------------------------------|-----------------------------|
-----------------------------------|-----------------------------|
---1-3---1-3---1-3---1-3---1-4---1-|-3---1-3---1-3---1-4---1-1---|



-------------|-------------|--------|-----|
---------5---|---------5---|--------|-----|
-4-0-4-3---3-|-4-0-4-3---3-|--------|-----|
-------------|-------------|-4--5---|-(5)-|


 verse 1
---------|----------|---------|----------|---------|-----------|---------|
---------|----------|---------|----------|---------|-----------|---------|
---------|------2---|---------|------2---|-2--3----|-2---2-3---|---------|
-2--3--0-|-2--3---3-|-2--3--0-|-2--3---3-|-------2-|---2-------|-2--3--0-|


------------|---------|-------------|-------------|--------|---------|
------------|---------|---------5---|---------5---|--------|---------|
---2-4------|-4--3--3-|-4-0-4-3---3-|-4-0-4-3---3-|--------|-4--3--3-|
-2-----3--3-|---------|-------------|-------------|-4--5---|---------|
 

                                        
-------------|-------------|-----------|-----|
---------5---|---------5---|-----------|-----|
-4-0-4-3---3-|-4-0-4-3---3-|-----------|-----|
-------------|-------------|-4-4-4-5---|-(5)-|
 

                          2x  chorus                                4x
-----------|----------------|-------------------|--------------------|
-----------|----------------|-------------------|--------------------|
-----------|-----4---2------|-------------------|---------3--2-------|
---2--3--0-|-2-5---3---3----|---0-2-----0-2-----|-0-2-----------3----|


---------|---------|---------|------------|
---------|---------|---------|------------|
---------|---------|---------|-----4------|
-2--3--3-|-2--3--3-|-2--3--3-|-2-5---3--0-|


 verse 2
---------|-------------|---------|-------------|---------|-----------|
---------|-------------|---------|-------------|---------|---4-------|
---------|-----4---2---|---------|-----4---2---|-2--3----|-2---2-3---|
-2--3--0-|-2-5---3---3-|-2--3--0-|-2-5---3---3-|-------2-|-----------|


---------|-------------|---------|-------------|-------------|--------|
---------|-------------|---------|---------5---|---------5---|--------|
---------|-----4---2---|-4--3--3-|-4-0-4-3---3-|-4-0-4-3---3-|--------|
-2--3--0-|-2-5---3---3-|---------|-------------|-------------|-4--5---|


                                               
---------|-------------|-------------|--------|-----|
---------|---------5---|---------5---|--------|-----|
-4--3--3-|-4-0-4-3---3-|-4-0-4-3---3-|--------|-----||
---------|-------------|-------------|-4--5---|-(5)-|


                          2x  chorus                                4x
-----------|----------------|-------------------|--------------------|
-----------|----------------|-------------------|--------------------|
-----------|-----4---2------|-------------------|---------3--2-------|
---2--3--0-|-2-5---3---3----|---0-2-----0-2-----|-0-2-----------3----|
    

-----------------------------------|---------------------------|
---------------4-------------------|-------------4-------------|
---------4-------4-----------------|-------4-------4-----------|
---0-2-2---2-2-----5-2-3-4-5-2-4-5-|-0-2-2---2-2-----5-2-3-4-3-|
     

                                                                2x  
---------------------------------|------------------------------|----|
-------------4-------------------|-------------4----------------|----|
-------4-------4-----------------|-------4-------4--------------|----|
-0-2-2---2-2-----5-2-3-4-5-2-4-5-|-0-2-2---2-2-----1-2-3-4-5-6--|-7--|
         

-----|-----------------------------------|----------------------------|
-----|-----------------------------------|----------------------------|
-----|-----------------------------------|----------------------------|
-(7)-|---1-3---1-3---1-3---1-3---1-4---1-|-3---1-3---1-3---1-4---1-1--|



---------------------------|------|---|---|---|---|-----------|----------|
---------------------------|------|---|---|---|---|-----------|----------|
---------------------------|------|---|---|---|---|-----------|----------|
-3---1-3---1-3---1-4---1-1-|-(1)--|---|---|---|---|-2-2-3-0-3-|-2--3-0-3-|


----------|----------|---------|--------------------|-----------|
----------|----------|---------|---4-------10-10----|-----------|
----------|----------|-2-2-3---|-2---2-3/9-------9\-|-------2---|
-2--3-0-3-|-2--3-0-3-|-------2-|--------------------|-2-2-3---3-|


-----------|---------|-----------|-------14----|------12-|
-----------|---------|-----------|-12-11----11-|-10-9----|
-------2---|-5--4--4-|-3--2--/14-|-------------|---------|
-2-2-3---3-|---------|-----------|-------------|---------|


                          2x  chorus                                4x
-----------|----------------|-------------------|--------------------|
-----------|----------------|-------------------|--------------------|
-----------|-----4---2------|-------------------|---------3--2-------|
---2--3--0-|-2-5---3---3----|---0-2-----0-2-----|-0-2-----------3----|
   

                                                              4x
-----------------------------------|---------------------------|
-----------------------------------|---------------------------|
-----------------------------------|---------------------------|
---1-3---1-3---1-3---1-3---1-4---1-|-3---1-3---1-3---1-4---1-1-|
    

-----------|----------|
-----------|----------|
-2---------|----------|
----0----1-|-(1)--3---|
  

                                       5x and fade
-----------------------------------|------------------------------|
-----------------------------------|------------------------------|
-----------------------------------|------------------------------|
---1-3---1-3---1-3---1-3---1-4---1-|-3---1-3---1-3---1-4---1-1----|
  


____________________________________________________________________________
                         Fucking Hostile


Tuning: Standard

verse
-------------------------------|----------|
-------------------------------|----------|
-------------------------------|-------3--|
-5-5-5-5-5-5-5-3-5-5-5-5-5-5-5-|-5-4-2----|


chorus
--------------------------------------|
--------------------------------------|
-3-------------3------------3---------|
----0-3-3-3-3----0-3-3-3-3----0-3-4-5-|


--------------|
--------------|
--------------|  !!We stand alone!!
-1-0-0--1-0-3-|


play the verse and chorus for the solo


----------------------|
----------------------|
-3-----3-----3--------|
---0-3---0-3----0-2-3-|

____________________________________________________________________________
                            Becoming


Tuning: Standard

intro
-------------------------|
-------------------------|
-------------------------|
-5-5--5-5--5-5--5-5--5-5-|

main riff
--------------------------------|
--------------------------------|
-----2----------------2---------|
-0-0---1-0-0-2/4--0-0---1-0-0-3-|

verse
----------------------------|
----------------------------|
----------------------------|
-0-0--0-0-0--0-0--0-0-0-2h3-|


chorus
----------------------------|
----------------------------|
----------------------------|
-7-5-0-3-0-0r--7-0-5^-3-0-0-|

the main riff is plated through the solo

____________________________________________________________________________
                          I'm Broken

Tuning: Standard

intro
-------------|
-------------|
-5-5-5-------|
-------5-3-0-|x4


main riff
-----------------------------------------|
-----------------------------------------|
-5-5-5------------7-7--5-5-----------5/\-|
-------5-3-0-3-3-----------5-3-0-3-3-----|


---------------|
---------------|
---------------|
-x-x--x-x--x-x-|



-----------|-----------|
-----------|-----------|
-----------|-----------|
-5^-5^-x-x-|-7^-7^-x-x-|


----------------------------------------------------------------------------
----------------------------------------------------------------------------
----------------------------------------------------------------------------
-0-2-1--0-3-2-1-0--0-4-3-2-0-0-3-2-1-0-0-4-3-2-0-0-3-2-1-0-0-4-3-2-0-3-2-1-0


-----------------------------|
-----------------------------|
---------------4-2-0-2-4-6-4-|
-0-0--0-0--0-0---------------|

solo
------------------------------|
------------------------------|
------------------------------|
-5--6--5--3--2-----2--3--2--1-|


____________________________________________________________________________
                         Five Minutes Alone
Tuning: Standard

main riff
--------------------|----------------------|
--------------------|----------------------|
--------------------|----------------------|
-3/5-0-3/5-0--x-x-x-|-3/5-0-6\3-0--x--x--x-|


---------------------------------|
-----9---------------------------|
-/9----9-8-7\5---5-----4-----2---|
---------------7---5\3---3\1---1-|


verse
-----------------------|
-----------------------|
-----------------------|
-0-0-0-0--0-0-0-0--0-0-|


-------------------|
-------4-------6^--|
---4/6---5---------|
-0----------4------|



----------------|
----------------|
----------------|
-7^---6^-----1^-|

-----------------------------|-------------------------------|
---------------------------3-|---------------------------6h8-|
-3^--1-3---1-----3br-1-3/5---|-6^--4-6---4-----6br-4-6/8-----|
-------------3---------------|-------------6-----------------|


--------------------------------|---------------|
--------------------------------|---------------|
---1------------1---------------|---------------|
-1---2-1--2-1-0---2-0-1h3-0-1h3-|-2-0-1h3-0-1h3-|

____________________________________________________________________________
                            Planet Caravan

Tuning: Standard

------------6h8------------------|
-------6h8------------6h8p6------|     
--6*-------------4*-----------9*-|
---------------------------------|  play this all the way through

____________________________________________________________________________
                           Drag The Waters

Tuning: Standard

------------|----------------|
------------|-7^--5-7p5------|
------------|-----------7----|
-1-0--0-1-0-|-------------5^-|



-------x-xxx-xxx-xxx-xxx-xxx---------------------|
-------x-xxx-xxx-xxx-xxx-xxx---------------------|
-------x-xxx-xxx-xxx-xxx-xxx-----5------8--------|
--1-0--x-xxx-xxx-xxx-xxx-xxx—0/7-----7/9----8p7--|

-------------------------------------------|
-------------------------------------------|
----------1-------3/5---------1-------3-3--|
--0/3---3---3-3-3------0/3--3---3-3-3------|



-------------------------------------------|
-------------------------------------------|
----------1-------3/5---------1-------5-1--|
--0/3~--3---3-3-3------0/3~-3---3-3-3------|

-------------------------------------------|
-------------------------------------------|
----------3-------5/7---------3-------7-3--|
--0/5~--5---5-5-5------0/5~-5---5-5-5------|

---------------------------------------|---------|
---------------------------------------|---------|
----------3-------5/7---------3--------|--6-7-8--|
--0/5~--5---5-5-5------0/5~-5---5-5-5--|---------|


---------------------------------------------|
--------------------7^----7-5-7p5---5--------|
----------------------------------7----------|
--1-0---1-0---1-0---------------------5^-----|

----------------------------------|
----------------------------------|
--5/7-7-5---5----7--5-------------|
---------7---7--------7-6-5-4-3---|

____________________________________________________________________________
                          Where You Come From

Tuning: Standard


---------------------------|----------------------------|
---------------------------|----------------------------|
-------0-3-5---------------|-5-3-0-----------7----------|
-0-3-6---------------------|-------6-5-3-0--------------|


---------------------------------|---------------------------|
-5p0---5p0-----------------------|---------------------------|
-----7-----7-5p0-5p0---5p0-------|-----------------5^--------|
---------------------7-----7-5p0-|-3p0-5p0-6-5-3p0-----------|


-------------------------------|--------------------------------|
-------------------------------|--------------------------------|
-------------------------------|--------------------------------|
-0---0-0-0---0-0-0---0-0-0---0-|-0-0---0-0-0---0-0-0------------|


--------------|-----------|
-5------------|-5p---5p---|
---7p5--------|----7----7-|
-------7-5\3--|-----------|
           play ^^^^^^^^^^^ this fast and pepetetive


---------|
---------|
---------|
-0-3-5-0-|

-----------------------------------------------------|
-----------------------------------------------------|
------------------------0----------------------------|
-3-2--2-2-1--1-0h2--2-2---0h2--2-2-0--0-0h2--2-2-0-3-|

------------------------------------------------------|
------------------------------------------------------|
--------0-------------------0-----0-------------------|
-0h2---2-0--0-0h2--2-2-0---0h2---2-0--0-0h2-2-2-2-0-3-|

---------------------------------------------------------------|
---------------------------------------------------------------|
------------------------------------------------------------0--|
-0h2-2-2-2-1-1-1-1-2-2-2-2-0-3--0h2-2-2-2-1-1-1-1-2-2-2-2-0----|

-----------------------------------------------------------------|
-----------------------------------------------------------------|
--------------------------------------------------------------0--|
-0h2-2-2-2-1-1-1-1-2-2-2-2-0-3--0h2-2-2-2-1-1-1-1-2-2-2-2-0-3----|

---------------------------------------------|
------------5-------------------5------------|
----7---------7--6-6-6-0----------7--5-5-5-0-|
--0---0h5h7---------------0h5h7--------------|


-----------------------|
-------5---------------|
----------5-4----------|
-0h5h7---------0-3-5-7-|

---------------------------------------------|
------------5-------------------5------------|
----7---------7--6-6-6-0----------7--5-5-5-0-|
--0---0h5h7---------------0h5h7--------------|

------------------------------------|
--7h9-7-5---------------------------|
----------5-4-4-4-0-----------------|
--------------------0-4-5-6-7-8-9-/-|

-----------------------------------|
-------------5-----5h7-5h7---------|
-----------7---7-5---------7-5-----|
-0--2-3--0---------------------7-3-|

----------------------|
----------------------|
-----------7--7--7--7-|
-0--2-3--0--0--0--0---|


outro
-------------|repeat|---------|
-------------|many  |---------|
-------5h6h7-|times |---------|
-5-6-7-------|      |-5-5-3-3-|


-------------|repeat|---------|
-------------|many  |---------|
-------5h6h7-|times |---------|
-5h6h7-------|      |-5-5-3-3-|


---------|repeat|---------|
---------|many  |---------|
-------8-|times |---------|
-5h6h7---|      |-5-5-3-3-|

____________________________________________________________________________
                       Revolution Is My Name
Tuning: Standard


Intro

--------|-------|----------------------------------------|
--------|-------|----------------------------------------|
-12-----|-5/12--|-5/12-----------------------------------|
--------|-------|---------------3----(3)--3---3--3--3--3-|



----------------------------|
----------------------------|
-0------0--------0--3-----1-|
-------------------------3--|



---------------------------------------|--------------------------------|
---------------------------------------|--------------------------------|
-0-------------8--7--0--------3--------|-0----5/12--------0-------3---1-|
-------------------------------------3-|----------------------------3---|



-------------------------|-----------------------------|
-7-7-7-7-7-7-7-7-7-7-7-7-|-7--5----7----5--------------|
-------------------------|-------7----7----7-6-5-3-5-3-|
-------------------------|-----------------------------|



-----------------------|
-----------------------|
-0---0---0---0---0---0-|
-----------------------|




---------5--------------5------|-------------|
-7--5------7--5--7--5-----7--5-|-------------|
------7---------------7--------|-------------|
-------------------------------|-1---4-------|



!!Sixty-eight!!                      
-------------------------|---------|-----|
-------------------------|---------|-----|
-0-6-0-3---5-0-6-0-3---5-|---------|-12--|
-------------------------|-3--2--1-|-----|


Pre-Chorus
-------------------------------------|---------| After this do the verse
-7-7-7-7-7-7-7-7-7-7-7-7-7-7-7-7-7-0-|---------| A couple more times
-------------------------------------|-3--2--1-|
-------------------------------------|---------|


!!What is my name!!
----------------|------------------------------------------------------|
----------------|------------------------------------------------------|
----------------|------------------------------------------------------|
-1----4---4---4-|-5---3--5--6--5----5---3--5--6--5-------6--6--5-------|



--------------------------------------------------------------------|
--------------------------------------------------------------------|
--------------7-----7-----------7-----------------------------6--7--|
-5---3--5--6-----------3--5--6----------6--6--5-------5--3--5-------|


End of chorus
------------------|----------------------------2-4-|
------------------|----------------------0-2-4-----|
-6----5----4----3-|-2--2---2-0-2---2-0-2-----------|
------------------|--------------------------------|


-----------------------------2-4-|
-------------------------2-4-----|
-2--2--2-0-2-2-----0-2-4---------|
---------------------------------|



-------------------------------|
------------------0-2-4-2-0-2--|
-2--2--2-0-2-2-----------------|
-------------------------------|


------------------|----------------------------2-4-|
------------------|----------------------0-2-4-----|
-6----5----4----3-|-2--2---2-0-2---2-0-2-----------|
------------------|--------------------------------|


-----------------------------2-4-|
-------------------------2-4-----|
-2--2--2-0-2-2-----0-2-4---------|
---------------------------------|



-------------------------------|
-------------------0-2-4-2-0-2-|
-2--2--2-0-2-2-----------------|
-------------------------------|

____________________________________________________________________________
                         Immortally Insane

Tuning: Standard


main riff
------------------------------------------|
------------------------------------------|
----------------5---5---5-----------------|
-0-3p0-3p0-5h6r---6---5---3-3-3-0-3-0-3/5-|


------------------|
------------------|
------------------| !!destroying, destroying!!
-0--0--0-0--0-/5^-|

outro
-----------------------------|
-----------------------------|
-----------------------------|
-0-3p0-3p0-5h6r--6-6-6-6-5-3-|

____________________________________________________________________________
                            The Badge

Tuning: Standard

------------------------------------------------------|
------------------------------------------------------|
------------------2-2-----------------1p0-------------|
E-0-0-0-0-0-0-0-0-----0-0-0-0-0-0-0-0------3-2-3-2-3--| Rpt 2 X

 Riff B
 
--------------------------------------------------------|
--------------------------------------------------------|
--0-0-0-0-0-0-0-0-1-1-0-0-0-0-0-0-0-0-5p3p0-2-3p2-3p----|
---------------------------------------------------3-2--|
 

 Chorus
              
----------------------------------------------|
----------------------------------------------|
----------------------------------------------|
-2--2-/3-\2--0-0-0-0-0-0-0-0-0-0-0-0-0-0-0-0--| 

              
----------------------------------------------|
----------------------------------------------|
----------------------------------------------|
-2--2-/3-\2--0-----------------(0)------------|

 Interlude        

----------------------------------------------------|
----------------------------------------------------|
----------------------------------------------------|
-5--5-5-5-5-5-5-5-5-5-5-5\4--4-4-4-4-4-4-4-4-4-4-4\-|


--------------------------------------------------------|
--------------------------------------------------------|
--------------------------------(8)----0-5-3-0-3-1------|
-3--3-3-3-3-3-3-3-3-3-3-3/6-----(6)----------------3-1--|

                       
--------------------------------------------------------|
--------------------------------------------------------|
--------------------------------3--------5br3--5-3------|
---------------------------------------------------5-3--|
        

----------------------------------------------------|
----------------------------------------------------|
----------------------------------------------------|
-5--5-5-5-5-5-5-5-5-5-5-5\4--4-4-4-4-4-4-4-4-4-4-4\-|



--------------------------------------------------------|
--------------------------------------------------------|
---------------------------------------0-5-3-0-3-1------|
-3--3-3-3-3-3-3-3-3-3-3-3/6-----(6)----------------3-1--|
                       
--------------------------------------------------------|
--------------------------------------------------------|
--------------------------------3-------666666rp4-------|
--------------------------------------------------5-4-3-|


Suggest correction
comments
print report bad tab
6 comments total. Showing first comments.
0 reply
guitar_gringo_ 10 Sep 05, 2007 07:42 PM

check out guitar_gringo........theres this song he put on there that is unbelievable..one song to end all!

0 reply
tulsa29 458 Sep 05, 2007 09:05 PM

what are you doing you retard??

0 reply
strq010 30 Sep 05, 2007 11:07 PM

i only looked at the CFH intro, everybody gets it completely wrong, and so did you, so i wont hold it against you

guest
You may want to rate the tab now too:
select rating
Wanna post a correction for this tab? Suggest correction