Oops, an error
Loading. Please wait.

Shedding Skin bass

version 2
version 2

Whole song

Interactive

by Pantera
781 views 1 this week
no commentswrite comment
1 2 3 4 5
3 more votes to show rating
add to favorites
×
Save as Personal and add changes to this tab that will be seen only by you. Learn more ›
×
You can save this tab as Personal to edit and correct it or add notes. All changes will be seen only by you. Learn more »
launch autoscroll
font size
0
reset
guitar tuner
backing track
0:00
0:00
edit
Autoscroll
slow
fast
+/-
esc
set tempo
stop
Author
Difficulty
================================================================================
                                 P A N T E R A

                                       -

                            S H E D D I N G   S K I N
================================================================================


                                FAR BEYOND DRIVEN
		           (c) 1994 East West Records
                             http://www.pantera.com/


                         Standard Tuning [5-string Bass]
                                   B E A D G


  Note that the tuning on the CD track is 50 cents lower than that outlined in
                              the tab's bass tuning.


			         Tempo = 144 BPM
		              Time Signature = 4/4



                          -----------------------------
		                 Transcribed by

		                 PADDY MCMULLAN
                           stinkypoohpants@yahoo.co.uk

                                   Version 1.0
                               17th November 2009
                             -----------------------

		             Tablature Symbols Used:


 h         -  Hammer-on
 p         -  Pull-off
 4 b 5     -  Bend Up
 5 r 4     -  Release Bend
 \         -  Slide Down to/Down From
 /         -  Slide Up to/Up From
 ( / )     -  Legato Slide
 ( )       -  Ghost Note/Tied Note/Implied Note
 REST      -  Rest, and sustain rest for duration of blank space
 |_3_|     -  Triplet Note(s)
 |-----|   -  Let notes ring


                                   ===========
                                   Song  Notes
                                   ===========



 The song is played on a 5-string bass, but you can easily play the song with a
 standard 4-string; there is rarely any action taking place on the B string and
 these notes are easily substituted.



================================================================================
Section 1: Play 4 times
================================================================================


||----------------------------|----------------------------|
||---------------2-2----------|---------------2-2----------|
||---------2--3------3--2-----|---------2--3------3--2-----|
||--0-0-3------------------3--|--0-0-3------------------3--|
||----------------------------|----------------------------|


|----------------------------|------------------------------| |
|---------------2-2----------|------------------------------|*|
|---------2--3------3--2-----|--2-2----2-2----1-1----0-0----| |
|--0-0-3------------------3--|------3------3------2------1--|*|
|----------------------------|------------------------------| |



================================================================================
Section 2: Play once
================================================================================


||-------------------|-------------------|-------------------|
||-------------------|-------------------|-------------------|
||-------------------|-------------------|-------------------|
||--0----------------|--(0)--------------|--(0)--------------|
||-------------------|-------------------|-------------------|


|---------------------|-------------------|-------------------|
|---------R-         -|-------------------|-------------------|
|---------E-         -|-------------------|-------------------|
|--6/ ----S-         -|--0----------------|--(0)--------------|
|---------T-         -|-------------------|-------------------|


|-------------------|-------------------|-------------------|
|-------------------|-------------------|-------------------|
|-------------------|-------------------|-------------------|
|--(0)--------------|--(0)--------------|--(0)--------------|
|-------------------|-------------------|-------------------|


|----------------------------|---------------------|-----------------------|
|----------------------------|---------------5\ ---|-----------------------|
|--0h3--------- / 7--9 h 10--|---------------------|-----------------------|
|----------------------------|--6------------------|--(5  \  3)------ \----|
|----------------------------|---------------------|-----------------------|


|-----------------------|----------------------|---------------------|
|-----------------------|-----------------5----|---------------------|
|----------------(5\4)--|--0h3-----------------|---------------------|
|--0-------------(0)----|----------------------|--6------------ /----|
|-----------------------|----------------------|---------------------|


|----------------------| |
|----------------------|*|
|----------------------| |
|--5------3------ /----|*|
|----------------------| |



================================================================================
Section 3: Play 4 times
================================================================================


||-----------------------------------|----------------------------------|
||-----------------------------------|--R-------------------------------|
||------------------7- \-------------|--E--------------7- \-------------|
||--0-0-0-0-0-0-0-0------0-0-3b4--0--|--S--0-0-0-0-0-0------0-0-3b4--0--|
||-----------------------------------|--T-------------------------------|

                                      |_______________________________[1,3]
|-------------------------------------|---------------------------------| |
|--R----------------------------------|---------------------------------|*|
|--E--------------7- \----------------|---------------------------------| |
|--S--0-0-0-0-0-0------0-0-(3/5)-(7b8 |   r 7 b 8 r 7 b 8 r 7)--3b4--0--|*|
|--T----------------------------------|---------------------------------| |


|___________________________________[2]
|-----------------------------------|*|
|-----------------------------------|*|
|-----------------------------------| |
|   r 7 b 8 r 7 b 8 r 7)--(5\1)--0--| |
|-----------------------------------| |


|__________________________________[4]
|----------------------------------|*|
|----------------------------------|*|
|----------------------------------| |
|   r 7 b 8 r 7 b 8 r 7)--(5\1)----| |
|----------------------------------| |


|_______________________________________[Tail]
|---------------------|---------------------||
|---------------------|--R------------------||
|---------------------|--E------------------||
|--6---------------5--|--S--4---------------||
|---------------------|--T------------------||



================================================================================
Play Section 1 four times
================================================================================

================================================================================
Play Section 2 once
================================================================================

================================================================================
Play Section 3 four times (including tail)
================================================================================

================================================================================
Play Section 1 four times, including the following tail:
================================================================================


||---------------------|--------------------------||
||---------------------|--R-----------------------||
||---------------------|--E---------------13-- \--||
||--6---------------5--|--S--4-------- /----------||
||---------------------|--T-----------------------||



================================================================================
Section 4.1: Play 16 times
================================================================================

  |__________________[1-7, 9-16]
||---------------------------| |
||---------------------------|*|
||--1--2p1----1-----1--------| |
||---------3-----3-----0--3--|*|
||---------------------------| |


  |_______________________________[8]
|-----------------------------------|
|-----------------------------------|
|--1--2p1----1--(1/3)--3--(1/3)--3--|
|---------3-------------------------|
|-----------------------------------|



================================================================================
Section 4.2: Play once
================================================================================


| |---------------------|---------------------|---------------------|
|3|---------------------|---------------------|---------------------|
|/|--1--2p1----1--------|--2--3p2----2--------|--3--4p3----3--------|
|4|---------3-----0--3--|---------4-----2--5--|---------5-----3--6--|
| |---------------------|---------------------|---------------------|


|---------------------| |---------------------------| |---------------|
|---------------------|4|---------------------------|2|---------------|
|--4--5p4----4--------|/|--5--7p5----5--------------|/|--2--3p2-0--2--|
|---------5-----4--7--|4|---------7-----7--6--5--3--|4|---------------|
|---------------------| |---------------------------| |---------------|


| |----------------------||
|4|----------------------||
|/|----------------------||
|4|--5----3----2----1----||
| |----------------------||



On the last bar the tempo increases to 208 BPM



================================================================================
Section 5: Guitars 1 & 2 (Repeats outlined below)
================================================================================


||-------------------------|------------------------|
||-------------------------|------------------------|
||--------------7-------7--|-- \--------------------|
||--0--0--0--0-------0-----|------1-----------1--1--|
||-------------------------|------------------------|


|---------------------------|------------------------| |
|---------------------------|------------------------|*|
|--------------10-------10--|-- \--------------------| | x 2
|--0--0--0--0--------0------|------1-----------1--1--|*|
|---------------------------|------------------------| |



||-------------------------|-----------------------| |
||--------------4-------4--|-(4)-------------------|*|
||-------------------------|-----------------------| |
||--2--2--2--2-------2-----|-----3-----------3--3--|*| x 2
||-------------------------|-----------------------| |



||-------------------------|------------------------|
||-------------------------|------------------------|
||--------------7-------7--|-- \--------------------|
||--0--0--0--0-------0-----|------1-----------1--1--|
||-------------------------|------------------------|


|---------------------------|------------------------| |
|---------------------------|------------------------|*|
|--------------10-------10--|-- \--------------------| | x 1
|--0--0--0--0--------0------|------1-----------1--1--|*|
|---------------------------|------------------------| |



|------------------------||
|--------R--------R-    -||
|--------E--------E-    -||
|--0--0--S--0--0--S-    -||
|--------T--------T-    -||



================================================================================
Guitar Solo 1 Backing: Play once
================================================================================


  1                          2
||--------------------------|--------------------------|
||--------------------------|--------------------------|
||--------------7--------7--|-(7)----------------------|
||--0--0--0--0-----0--0-----|-----0--1--0--1--1--1--1--|
||--------------------------|--------------------------|

 3                          4
|--------------------------|--------------------------|
|--------------------------|--------------------------|
|--------------7--------7--|-(7)----------------------|
|--0--0--0--0-----0--0-----|-----0--0--0--1--1--1--1--|
|--------------------------|--------------------------|

 5                          6
|--------------------------|--------------------------|
|--------------------------|--------------------------|
|--------------7--------7--|-(7)----------------------|
|--0--0--0--0-----0--0-----|-----0--1--1--1--1--1--1--|
|--------------------------|--------------------------|

 7                          8
|--------------------------|--------------------------|
|--------------------------|--------------------------|
|--------------7--------7--|-(7)----------------------|
|--0--0--0--0-----0--0-----|-----0--1--1--1--1--1--1--|
|--------------------------|--------------------------|

 9                      |--------| 10
|--------------------------|--------------------------|
|--------------4--------4--|-(4)----------------------|
|--------------------------|--------------------------|
|--0--2--2--2-----2--2-----|-----2--3--3--3--3--3--3--|
|--------------------------|--------------------------|

 11            |--------|   12
|--------------------------|--------------------------|
|--------------4--------4--|-(4)-------------2--3--4--|
|--------------------------|-----0--2--3--4-----------|
|--0--2--2--2-----2--2-----|--------------------------|
|--------------------------|--------------------------|

 13                          14
|---------------------------|--------------------------|
|---------------------------|--------------------------|
|--------------7-------(7 \ |  6)----------------------|
|--0--0--0--0-----0--0------|-----0--1--2--1--2--2--2--|
|---------------------------|--------------------------|

 15                          16
|---------------------------|--------------------------|
|---------------------------|--------------------------|
|--------------7-------(7 \ |  6)----------------------|
|--0--0--0--0-----0--0------|-----0--1--2--1--1--1--1--|
|---------------------------|--------------------------|

 17
|------------------------||
|--------R--------R-    -||
|--------E--------E-    -||
|--0--0--S--0--0--S-    -||
|--------T--------T-    -||



================================================================================
Play Section 5
================================================================================

================================================================================
Section 6: Play once
================================================================================


||-------------------------|--------------------------|
||-------------------------|--------------------------|
||-------------7--7-----7--|-(7)----------------------|
||--0----0--0--------0-----|--0--0--0--0--1--1--1--1--|
||-------------------------|--------------------------|


|---------------------------|--------------------------|
|---------------------------|--------------------------|
|--------------7--7-----7   |  \-----------------------|
|--0--0--0--0--------0------|-----0--0--0--1--1--1--1--|
|---------------------------|--------------------------|


|------------------------|---------------------------|
|------------------------|---------------------------|
|-------------7-------7--|-  \-----------------------|
|--0--0----0-------0-----|------0--0--0--1--1--1--1--|
|------------------------|---------------------------|


|------------------------|---------------------------||
|------------------------|---------------------------||
|-------------7-------7--|-  \-----------------------||
|--0--0----0-------0-----|------0--0--0--1--1--1--1--||
|------------------------|---------------------------||



================================================================================
Guitar Solo 2 Backing:
================================================================================


||--------------------------|--------------------------|
||--------------------------|--------------------------|
||--------------------------|--------------------------|
||--2--2--2--2--5--2--2--2--|--5--2--2--2--3--3--3--3--|
||--------------------------|--------------------------|


|--------------------------|--------------------------|
|--------------------------|-----------------2--3--4--|
|--------------------------|-----0--2--3--4-----------|
|--0--2--2--2--5--2--2--2--|--2-----------------------|
|--------------------------|--------------------------|


|--------------------------|---------------------------|
|--------------------------|---------------------------|
|--------------7--------7--|-- \-----------------------|
|--0--0--0--0-----0--0-----|------0--1--1--1--1--1--1--|
|--------------------------|---------------------------|


|--------------------------|---------------------------|
|--------------------------|---------------------------|
|--------------7--------7--|-- \-----------------------|
|--0--0--0--0-----0--0-----|------0--1--1--1--1--1--1--|
|--------------------------|---------------------------|


|------------------------||
|--------R--------R-    -||
|--------E--------E-    -||
|--0--0--S--0--0--S-    -||
|--------T--------T-    -||



================================================================================
Outro 1.1: Play 4 times
================================================================================


                          |__________________[1,2,3]
| |-----------------------| |--------------------| |
|4|-----------------------|3|--------------------|*|
|/|--------------1--------|/|--------------------| |
|4|--0--0--1--1-----------|4|--0--0-----0--0-----|*|
| |-----------------------| |--------------------| |


|_________________________[4]
| |------------------------||
|4|--------R--------R-    -||
|/|--------E--------E-    -||
|4|--0--0--S--0--0--S-    -||
| |--------T--------T-    -||



================================================================================
Outro 1.2: Guitars 1 & 2 (Play 8 times)
================================================================================


                         |________________________[1-7]
||-----------------------|--------------------------| |
||-----------------------|--------------------------|*|
||--------------1--------|--------------------------| |
||--0--0--1--1-----------|--0--0--0--0--0--0--0--0--|*|
||-----------------------|--------------------------| |


|________________________[8]
||------------------------||
||--------R--------R-    -||
||--------E--------E-    -||
||--0--0--S--0--0--S-    -||
||--------T--------T-    -||



================================================================================
End
================================================================================


Tab summary:        Section 1 x 4
                    Section 2 x 1
                    Section 3 x 4
                    Section 1 x 4
                    Section 2 x 1
                    Section 3 x 4
                    Section 1 x 4
                    Section 4:
                              4.1 x 16
                              4.2 x 1
                    Section 5 x 1 (Repeats Outlined in tab)
                    Guitar Solo 1 Backing x 1
                    Section 5 x 1 (Repeats Outlined in tab)
                    Section 6 x 1
                    Guitar Solo 2 Backing x 1
                    Outro:
                          1.1 x 4
                          1.2 x 8

                    END

            
            
Suggest correction
Creating personal tab
Creating personal tab
You can edit any tab online and save it as your Personal.

You can edit, replace or remove any tab part or add personal notes – all changes will be seen only by you.

Personal tabs can be accessed anytime from any device, even offline.
Learn more »
Give kudos to tab author, rate the tab!
1 2 3 4 5
comments
print report bad tab
guest
You may want to rate the tab now too:
select rating
Wanna post a correction for this tab? Suggest correction